Cifra Club

Suffocate

Cold

Cifra: Principal (violão e guitarra)
tom: A
verse

F# - A - E - F#

-------------------------------------------
-------------------------------------------
----------2-2---2-------------0-0---0------
------2-2-----2---2-2-----2-2-----2---2-2--
--0-0-----------------3-3------------------
-------------------------------------------

-----------------------------------------
-----------------------------------------
----------0-0---0-------------2-2---2h4--
------0-0-----0---0-0-----2-2-----2------
----------------------0-0----------------
--3-3------------------------------------

Eb| ---------------------
Bb| ---------------------
Gb| ---------------------
Db| ---4---7---2---4-----
Ab| ---4---7---2---4-----
Eb| ---2---5---0---2-----


chorus

A - E - F#

Eb| ---------------------
Bb| ---------------------
Gb| ---------------------
Db| ------7---2---4-----
Ab| ------7---2---4-----
Eb| ------5---0---2-----

bRIDGE

Cb - B - A

Eb| -----------------
Bb| -----------------
Gb| --6--------------
Db| --6---9----7-----
Ab| --4---9----7-----
Eb| ------7----5-----

I could take every fucking word she says 
Throw it in her face 
but would she even care 
I still remember when she looked at me 
that frown upon her face 
Trying to be sincere 
I gathered all those little things she said 
Kept them close to me 
Trying to make this real 
This cloud will alway hover over me 
I'm leaving you today 
'cause now I see 

[Chorus] 
Suffocate, you suffocate 
That you lie (I don't lie) 
That your fake (I'm not Fake) 
Suffocate, you suffocate 
You always take (I don't take) 
What you can (what I can) 

I could take every fucking game you play 
Blow it all away 
but would you even care 
I could take all those lies you said to me 
Never go away 
Never dissapear 
This cloud will always hover over me 
I'm leaving you today 
'Cause now I see 

[Chorus x2]

Now I'm far away from you (You're always far away) 
I'll never bring back yesterday (bring back yesterday) 
You're such a fake it's true 
I can't believe the words you say 
I'm far away from you 
I'll never bring back yesterday 

[Chorus] 

I always take 
What I can 
00:00 / 00:00
Outros vídeos desta música
Repetir
Outros vídeos desta música
Compositor não encontrado.
Colaboração e revisão:
  • Fábio Dias
2.832 exibições
    • ½ Tom
    • A
    • Bb
    • B
    • C
    • Db
    • D
    • Eb
    • E
    • F
    • F#
    • G
    • Ab
  • Adicionar à lista

    0 comentários

    Ver todos os comentários

    Conseguiu tocar?

    0 Tocaram 0 Ainda não

    Grave um vídeo tocando Suffocate e nos envie!

    Entre para oCifra Club PRO

    Tenha acesso a benefícios exclusivos no App e no Site

    • Chega de anúncios

    • Prioridade de compra em lançamentos

    • Mais recursos no app do Afinador

    • Atendimento Prioritário

    • Descontos nos produtos Cifra Club

    • Ajude a produzir mais conteúdo

    00:00 / 00:00

    Cifra Club Pro

    Aproveite o Cifra Club com benefícios exclusivos e sem anúncios
    Cifra Club Pro
    Aproveite o Cifra Club com benefícios exclusivos e sem anúncios
    OK