Cifra Club

Wasted Years

Cold

Cifra: Principal (violão e guitarra)
tom: Ab
Intro 2x: Bbm  C#  G#  G

Fm                   C#
There's a game life plays
          G#                             G
makes you think you're everything they ever said you were
Fm                 C#
Like to take some time
       G#                     G
Clear away everything I've planned

Bbm
Was it life I've betrayed
         C#
for the shape that I'm in
     G#
It's not hard to fail
          G
it's not easy to win
Bbm
did I drink too much
         C#
could I disappear
             G#                       G
and there's nothing that's left but wasted years

Fm                        C#
There's nothing left but wasted years
G#                         G
There's nothing left but wasted years

Fm                    C#
If I could change my life
      G#                  G
Be a simple kind of man try to do the best I can
Fm                   C#
if I could take the sides
G#                     G
I'd dreail every path I could
Fm            C#
I'm about to die
           G#                          G
won't you clear away from me give me strength to fly away

Intro:
E|-------------------------------------------|
B|-------------------------------------------|
G|-------------------------------------------|
D|-------------------------------------------|
A|---6/8-8-8-8/10-10-10-10-10/11-11-11-11-11-|
E|----------------------------------9--9--9--|

E|-------------------------------------------|
B|-------------------------------------------|
G|-------------------------------------------|
D|-------------------------------------------|
A|---6/8-8-8-8/10-10-10-10-10/11-11-13-13-13-|
E|----------------------------------11-11-11-|

Refrão:
E|----------------------------------------------------------------------|
B|-------1-----------------1------------------1--------------1----------|
G|---3-----3-----------3------3----------3------3--------3-----3--------|
D|-----3------3----------3------3----------3------3--------1-----1------|
A|-1-------------1---4-------------4------------------------------------|
E|------------------------------------4-------------4--1-----------1----|

Solo:
E|----------------------------------------------------------------------|
B|----------------------------------------------------------------------|
G|-------------------------------13-----12------------------------------|
D|---8/10-10-10-10/11-11-11-11/13-13-----13-----13-13-13----------------|
A|----------------------------------------------------------------------|
E|----------------------------------------------------------------------|

E|----------------------------------------------------------------------|
B|----------------------------------------------------------------------|
G|----------------------------------------------------------------------|
D|---8/10-10-10-10/11-11-11-11/13-13-13-13/15---------------------------|
A|----------------------------------------------------------------------|
E|----------------------------------------------------------------------|

E|----------------------------------------------------------------------|
B|----------------------------------------------------------------------|
G|-----------------------------------------------------13-13-13p12------|
D|--13-13h15-15-15-15-15-15--13-13h15-15-15-15-15-15---------------13---|
A|----------------------------------------------------------------------|
E|----------------------------------------------------------------------|

E|----------------------------------------------------------------------|
B|----------------------------------------------------------------------|
G|--------------------------------13p12----12----13p12----12-----12--15-|
D|--13h15-15-15-15-15-15-15-15-15-------13----13-------13-----13--------|
A|----------------------------------------------------------------------|
E|----------------------------------------------------------------------|
00:00 / 00:00
Outros vídeos desta música
Repetir
Outros vídeos desta música
Composição de Terry Balsamo
Colaboração e revisão:
  • Vinicius Britto
  • Luiz Benicio
832 exibições
    • ½ Tom
    • A
    • Bb
    • B
    • C
    • Db
    • D
    • Eb
    • E
    • F
    • F#
    • G
    • Ab
  • Adicionar à lista

    0 comentários

    Ver todos os comentários

    Conseguiu tocar?

    0 Tocaram 0 Ainda não

    Grave um vídeo tocando Wasted Years e nos envie!

    Entre para oCifra Club PRO

    Tenha acesso a benefícios exclusivos no App e no Site

    • Chega de anúncios

    • Prioridade de compra em lançamentos

    • Mais recursos no app do Afinador

    • Atendimento Prioritário

    • Descontos nos produtos Cifra Club

    • Ajude a produzir mais conteúdo

    00:00 / 00:00

    Cifra Club Pro

    Aproveite o Cifra Club com benefícios exclusivos e sem anúncios
    Cifra Club Pro
    Aproveite o Cifra Club com benefícios exclusivos e sem anúncios
    OK