Cifra Club

A Message

Coldplay

Cifra: Principal
exibições 113.547
Tom: C# (com acordes na forma de C) Capotraste na 1ª casa
*Ao vivo, eles costumam tocar sem capo 
(mesma afinação e mesmos acordes)

Afinação: EADGCC


     C      Em     G      F      Dm    C/G     G6     Am
C|--0------0------0------0------0------0------0------0--|
C|--0------0------0------0------0------0------0------0--|
G|--9------0------4------2------10-----0------0------2--|
D|--10-----2------5------3------12-----2------0------2--|
A|--10-----2------5------3------12-----3------2------0--|
E|--8------0------3------1------10-----3------3------x--|


C           Em   G
My song is love
C            Em            G
Love to the loveless shown
C           Em   G
And it goes up
           F      Em   G
You don't have to be alone

C           Em     G
Your heavy heart
C           Em    G    F
Is made of stone
C            Em      G
And it's so hard to see clearly
           F         Em      G
You don't have to be on your own
           F         Em      G
You don't have to be on your own

Dm                 C       G
And I'm not gonna take it back
Dm                        C           G
Well I'm not gonna say I don't mean that
Dm                         C      G
You're the target that I'm aiming at
          F        C/G       G
And I'll get that message home

C           Em    G
My song is love
C           Em         G     F
My song is love unknown
C          Em        G
And I'm on fire for you clearly
           F      Em   G
You don't have to be alone
           F         Em      G
You don't have to be on your own

Dm                 C       G
And I'm not gonna take it back
Dm                       C           G
And I'm not gonna say I don't mean that
Dm                         C      G
You're the target that I'm aiming at
         F      C/G   G
And I'm nothing on my own
        F        C/G       G
Got to get that message home


(solo) Dm C G (x2)

E|---------9-9--------9-9--------8-8-----------8---8-------|
B|--------------7-7--------6-6-----------------------------|
G|--11~~~-----------------------------8------8---8---8-8/--|
D|---------------------------------------------------------|
A|---------------------------------------------------------|
E|---------------------------------------------------------|


Dm                  C        G
And I'm not gonna stand and wait
Dm                             C        G
Not gonna leave it until it's much too late
Dm                         C        G
On a platform, I'm gonna stand and say
          F      C/G   G
That I'm nothing on my own
       F          C/G          G
And I love you, please come home


F C/G G6 Am (x2)

    F       C/G      G6      Am
My song is love, is love unknown
          F     C/G      G6       C/G
And I've got to get that message home
Acordes para:

    0 comentários

      mostrar mais comentários

      Conseguiu tocar?

      26tocaram0ainda não

      Grave um vídeo tocando A Message e mande pra gente!

      00:00 / 00:00
      outros vídeos desta música
      repetirqualidadeautomática
      Outro vídeos desta música
        00:00 / 00:00
        automática
        OK