Cifra Club

Beautiful World

Coldplay

Tab de baixo: Principal
exibições 400
G|------------|---------------|---------------|---------------|-----------------|
D|------------|---------------|---------------|---------------|-----------------|
A|------------|-0----0--0-0---|-3----3--3-3---|---------------|-----------------|
E|------------|---------------|---------------|-1----1--1-1---|-1----1--1-3-----|

G|---------------|---------------|---------------|---------------|
D|---------------|---------------|---------------|---------------|
A|-0----0--0-0---|-3----3--3-3---|---------------|---------------|
E|---------------|---------------|-1----1--1-1---|-1----1--1-3---|

G|--------------|--------------|---------------|---------------|
D|-0----0--0----|--------------|---------------|---------------|
A|-----------0--|-3----3--3----|---------------|---------------|
E|--------------|-----------3--|-1----1--1-1---|-1----1--1-3---|

G|--------------|--------------|---------------|---------------|
D|-0----0--0----|--------------|---------------|---------------|
A|-----------0--|-3----3--3----|---------------|---------------|
E|--------------|-----------3--|-1----1--1-1---|-1----1--1-3---|

G|---------------|---------------|---------------|---------------|
D|---------------|---------------|---------------|---------------|
A|-0----0--0-0---|-3----3--3-3---|---------------|---------------|
E|---------------|---------------|-1----1--1-1---|-1----1--1-3---|E

G|---------------|---------------|---------------|---------------|
D|---------------|---------------|---------------|---------------|
A|-0----0--0-0---|-3----3--3-3---|---------------|---------------|
E|---------------|---------------|-1----1--1-1---|-1----1--1-3---|

G|--------------|--------------|---------------|---------------|
D|-0----0--0----|--------------|---------------|---------------|
A|-----------0--|-3----3--3----|---------------|---------------|
E|--------------|-----------3--|-1----1--1-1---|-1----1--1-3---|

G|--------------|--------------|---------------|---------------|
D|-0----0--0----|--------------|---------------|---------------|
A|-----------0--|-3----3--3----|---------------|---------------|
E|--------------|-----------3--|-1----1--1-1---|-1----1--1-3---|

G|---------------|---------------|---------------|---------------|
D|---------------|---------------|---------------|---------------|
A|-0----0--0-0---|-3----3--3-3---|---------------|---------------|
E|---------------|---------------|-1----1--1-1---|-1----1--1-3---|

G|---------------|---------------|---------------|---------------|
D|---------------|---------------|---------------|---------------|
A|-0----0--0-0---|-3----3--3-3---|---------------|---------------|
E|---------------|---------------|-1----1--1-1---|-1----1--1-3---|

G|---------------|---------------|---------------|---------------|
D|---------------|---------------|---------------|---------------|
A|-0----0--0-0---|-3----3--3-3---|---------------|---------------|
E|---------------|---------------|-1----1--1-1---|-1----1--1-3---|

G|---------------|---------------|---------------|---------------*|
D|---------------|---------------|---------------|---------------*|
A|-0----0--0-0---|-3----3--3-3---|---------------|---------------*|
E|---------------|---------------|-1----1--1-1---|-1----1----(1)-*|
Colaboração e revisão:
  • Mansinho Jr.

0 comentários

    mostrar mais comentários

    Conseguiu tocar?

    0tocaram0ainda não

    Grave um vídeo tocando Beautiful World e mande pra gente!

    00:00 / 00:00
    outros vídeos desta música
    repetirqualidadeautomática
    Outro vídeos desta música
      00:00 / 00:00
      automática
      OK