Cifra Club

Bigger Stronger

Coldplay

Tab de baixo: Principal
exibições 550
Tabbed By : dvanwyk
e-mail: *

Tuning:Standard
 Intro
G|-------------------------------------------------|
D|7~---------------------7~--------------------7~--|
A|---9~--3~--3~-0h3-55-------9~--3~--3~-0h3-57-----|
E|-------------------------------------------------|

 Verse
G|----------------------------------------|
D|7-7-77-7--------------------------------|
A|---------9-9-99-9-3-3-0h3-3-3-3-0h3-55--|
E|----------------------------------------|

G|-------------------------------------------|
D|7-7-77-7-------------------------------7~--|
A|---------9-9-99-9-3-3-0h3-3-3-3-0h3-57-----|
E|-------------------------------------------|

 Chorus x2(Note:12 not 1 & 2,11 not 1 and 10 not 1 & 0 )
G|-------------------------------------------------|
D|12-12-12-12-11-11-11-11-------------10-10-10-10--|
A|------------------------10-10-10-10--------------|
E|-------------------------------------------------|

G|-----------------------------------------------------------------------------|
D|-----------------------------------------------------------------------------|
A|10-10-10-10-7-7-7-7/12-12-12-12-12-12-12-12-12-------------------------------|
E|-----------------------------------------------------------------------------|

 Post-Chorus
G|----------------------14-12-79------------------------14-12-79--|
D|7-77-7-10-12-12-10h12-----------7-77-7-10-12-12-10h12-----------|
A|----------------------------------------------------------------|
E|----------------------------------------------------------------|

G|----------------------14-12-79-------------------------------|
D|7-77-7-10-12-12-10h12----------7-77-7-10-12-12-10h12---------|
A|-----------------------------------------------------0-0-00--|
E|-------------------------------------------------------------|

 Verse
 Chorus

 Bridge x4(Note:1's not 11's)
G|-------------------------------------------------------------------------------------|
D|-------------------------7--7--------------------------------------------------------|
A|------------3-3-5-5-5-5-5--5---------------------------------------------------------|
E|1-1-1-3-3-3--------------------------------------------------------------------------|

 Breakdown
G|------------------------------------------------------------|
D|------------------------------------------------------------|
A|--------------------12-10-57----------------------12-10-57--|
E|5-55-5-8-10-10-8h10-----------5-55-5-8-10-10-8h10-----------|

G|------------------------------------------------------------|
D|------------------------------------------------------------|
A|--------------------12-10-57------------------------0-0-00--|
E|5-55-5-8-10-10-8h10----------5-55-5-8-10-10-8h10-10---------|

G|------------------------------------------------------------|
D|------------------------------------------------------------|
A|--------------------12-10-57------------------------0-0-00--|
E|5-55-5-8-10-10-8h10----------5-55-5-8-10-10-8h10-10---------|

G|------------------------------------------------------------|
D|------------------------------------------------------------|
A|--------------------12-10-57------------------------0-0-00--|
E|5-55-5-8-10-10-8h10----------5-55-5-8-10-10-8h10-10---------|

 Outro
G|-------------------------------------------------|
D|7~---------------------7~--------------------7~--|
A|---9~--3~--3~-0h3-55-------9~--3~--3~-0h3-57-----|
E|-------------------------------------------------|


| /  slide up
| \  slide down
| h  hammer-on
| p  pull-off
| ~  vibrato
| +  harmonic
| x  Mute note
===============================================================================

0 comentários

    mostrar mais comentários

    Conseguiu tocar?

    0tocaram0ainda não

    Grave um vídeo tocando Bigger Stronger e mande pra gente!

    00:00 / 00:00
    outros vídeos desta música
    repetirqualidadeautomática
    Outro vídeos desta música
      00:00 / 00:00
      automática
      OK