Enviar cifraEntrar

Charlie Brown

Coldplay

Cifra: Principal
exibições 155.200
Tom: A# (com acordes na forma de G) Capotraste na 3ª casa
[Intro]  Em  C  G  Em  C  Am


E|------3-------3-----3---3---3--3-------------|
B|--1/3--3--0h1---1h0----0--0---0--------------|
G|---------------------------------------------|
D|---------------------------------------------|
A|---------------------------------------------|                       
E|---------------------------------------------|


E|---------------------------------------------|
B|-----0----0----0-----------0----0----0-------|
G|--0h2--0h2--0h2---2--0--0h2--0h2--0h2---2--0-|
D|----------------------2----------------------|
A|---------------------------------------------|
E|---------------------------------------------|


E|------6-6-----6-----6---6----6--6------------|
B|--4s6--6--3s4---4s3----3--3-3--3-------------|
G|---------------------------------------------|
D|---------------------------------------------|
A|---------------------------------------------|
E|---------------------------------------------|


E|---------------------------------------------|
B|-----3----3----3-----------3----3----3-------|
G|--3h5--3h5--3h5---5--3--3-5--3h5--3h5---5--3-|
D|----------------------5----------------------|
A|---------------------------------------------|
E|---------------------------------------------|


Em     C     G
I    stole a key,
            Em                 C
Took a car downtown where the lost boys meet,
                      Am
I took a car downtown and took what they offered me

Em     C        G
To    set me free,
           Em                       C
I saw the lights go down at the end of the scene,
                               Am
I saw the lights go down and they're standing in front of me

[Em  C  G  Em  C  Am]

 Em    C       G
My scarecrow dreams,
            Em                  C
When they smash my heart into smitharines,
                             Am
I be a bright red rose come bursting the concrete.
 Em     C        G
Be the cartoon heart

 C
Light a fire, light a spark
 D                           C
Light a fire, a flame in my heart

We'll run wild,

                      Em
We'll be glow-in-the-dark


[Em  C  G  Em  C  Am]
[Em  C  G  Em  C  Am]

         D
All the boys, all the girls,
          C              G
All that matters in the world

         D
All the boys, all the girls,
         C              G
All the madness that occurs

         D
All the high's, all the low's,

        Bm               C
As the room a-spinning goes

 C
We'll run riot,
We'll be glowing in the dark

[Em  C  G  Em  C  Am]
[Em  C  G  Em  C  Am]
[Em  C  G  Em  C  Am]


          Em  C  G
So we'll soar
 C
Luminous and wired
                         G
We'll be glowing in the dark
  • 1
  • 2
  • 3
  • 4
  • 5
  • 6
  • 7
  • 8
  • 9
  • 10
  • 11
  • 12

    0 comentários

      mostrar mais comentários

      Conseguiu tocar?

      53tocaram0ainda não

      Grave um vídeo tocando Charlie Brown e mande pra gente!

      00:00 / 00:00
      outros vídeos desta música
      repetirqualidadeautomática
      • automática
      Outro vídeos desta música
        00:00 / 00:00
        automática
        • automática
        Acordes para:violão e guitarra
        dificuldadeexibiçõescontribuições
        1 versão de Tab de baixoexibiçõescontribuições
        1 versão de Guitar Proformatodownloadscontribuição
        fecharplay/pause subir/descer velocidade
          Acordes para:violão e guitarra
          acordes
          fechar
          OK