Enviar cifraEntrar

Clocks

Coldplay

Cifra: Principal
exibições 643.988
Tom: G#
[Intro] Eb  Bbm  Fm


E|----------------------------------------------------------------------|
B|-4-----4--- 4----2------2-----2---2-----2-----2----1------1----1------|
G|---3-----3---------3------3---------3-----3----------1------1---------|
D|-----5-----5---5-----3------3---3-----3-----3----3------3-----3---3---|
A|----------------------------------------------------------------------|
E|----------------------------------------------------------------------|


     Eb                           Bbm                         Fm
The lights go out and I can't be saved tides that I tried to swim against
       Eb                          Bbm                           Fm
Have brought me down upon my knees oh I beg, I beg and I plead - Singing
     Eb                          Bbm                       Fm
Come out of the things unsaid shoot an apple off my head - And a
  Eb                           Bbm                          Fm
Trouble that can't be named a tiger's waiting to be tamed - Singing

 Eb Bbm Fm
Yoooooou are
 Eb Bbm Fm
Yoooooou are

 Eb         Bbm                                         Fm
Confusion that never stops the closing walls and the ticking clocks - Gonna
 Eb            Bbm                                    Fm
Come back and take you home i could not stop that you now know - Singing
 Eb            Bbm                                 Fm
Come out upon my seas cursed missed opportunities - Am I
Eb     Bbm                          Fm
A part of the cure or am I part of the disease - Singing

 Eb Bbm Fm
Yoooooou are
 Eb Bbm Fm
Yoooooou are

Gb                             Db Ab/C
And (Oh) nothing else compares
Gb                              Db Ab/C
And (Oh) nothing else compares
Gb                              Db Ab/C Gb
And (Oh) nothing else compares

 Eb    Bbm                      Fm
Home, home where I wanted to go
 Eb    Bbm                      Fm
Home, home where I wanted to go


E|----4-3--1------------------|
B|--2-------------------------|
G|----------------------------|
D|----------------------------|
A|----------------------------|
E|----------------------------|
  • 1
  • 2
  • 3
  • 4
  • 5
  • 6
  • 7
  • 8
  • 9
  • 10
  • 11
  • 12

    0 comentários

      mostrar mais comentários

      Conseguiu tocar?

      63tocaram1ainda não

      Grave um vídeo tocando Clocks e mande pra gente!

      00:00 / 00:00
      outros vídeos desta música
      repetirqualidadeautomática
      • automática
      Outro vídeos desta música
        00:00 / 00:00
        automática
        • automática
        fecharplay/pause subir/descer velocidade
          Acordes para:violão e guitarra
          acordes
          fechar
          OK