Cifra Club

Clocks

Coldplay

Tab de baixo: Principal
exibições 57.750
Intro:
G|---------------------------------------------------|
D|---------------------------------------------------|
A|-6-6-6-6-6-6-6-6-----------------------------------|
E|-----------------6-6-6-6-6-6-6-6-6-6-6-6-6-6-6-6---|

G|---------------------------------------------------|
D|---------------------------------------------------|
A|-8-8-8-8-8-8-8-8-----------------------------------|
E|---------------------------------------------------|

G|---------------------------------------------------|
D|---------------------8-----8---------8-----8-------|
A|-6-6-6-6-6-6-6-6-----------------------------------|
E|-----------------6-6---6-6---6-6-6-6---6-6---6-6---|

G|---------------------------------------------------|
D|---------------------------------------------------|
A|-8-8-8-8-8-8-8-8-----------------------------------|
E|---------------------------------------------------|

Primeira parte:
G|---------------------------------------------------|
D|-----------------8-8-8-8-8-8-8-8-8-8-8-8-8-8-8-8---|
A|-6-6-6-6-6-6-6-6-----------------------------------|
E|---------------------------------------------------|
                                                      (4x)
G|---------------------------------------------------|
D|---------------------------------------------------|
A|-8-8-8-8-8-8-8-8-----------------------------------|
E|---------------------------------------------------|

The lights go out and I can't be saved
Tides that I tried to swim against
Have brought me down upon my knees
Oh I beg, I beg and plead, singing

Come out of things unsaid
Shoot an apple off my head and a
Trouble that can't be named
A tiger's waiting to be tamed, singing


Segunda parte:
G|---------------------------------------------------|
D|---------------------------------------------------|
A|-6-6-6-6-6-6-6-6-----------------------------------|
E|-----------------6-6-6-6-6-6-6-6-6-6-6-6-6-6-6-6\--|

G|---------------------------------------------------|
D|----------------------------------8-8-8-8-8-8-8-8--|
A|---------------1/-6-6-6-6-6-6-6-6------------------|
E|-1-1-1-1-1-1-1-------------------------------------|

G|---------------------------------------------------|
D|-8-8-8-8-8-8-8-8\----------------------------------|
A|--------------------------------1/-----------------|
E|------------------1-1-1-1-1-1-1--------------------|

(...)
You are
You are


Interlúdio:
G|---------------------------------------------------|
D|-----------------------------------------10--------|
A|-6-6-6-6-6-6-/11h13-13-13-13-13-13-13-13-----------|
E|---------------------------------------------------|
                                                      (2x)
G|---------------------------------------------------|
D|-8-8-8-6-6-6-5-5-6-6-6-6-6-6-6-6-------------------|
A|---------------------------------------------------|
E|---------------------------------------------------|


Terceira parte:
G|---------------------------------------------------|
D|-----------------8-8-8-8-8-8-8-8-8-8-8-8-8-8-8-8---|
A|-6-6-6-6-6-6-6-6-----------------------------------|
E|---------------------------------------------------|
                                                      (4x)
G|---------------------------------------------------|
D|---------------------------------------------------|
A|-8-8-8-8-8-8-8-8-----------------------------------|
E|---------------------------------------------------|

(...)
Confusion that never stops
Closing walls and ticking clocks
Gonna come back and take you home
I could not stop that you now know, singing

Come out upon my seas
Cursed missed opportunities
Am I a part of the cure?
Or am I part of the disease? Singing


Repetição da segunda parte:
G|---------------------------------------------------|
D|---------------------------------------------------|
A|-6-6-6-6-6-6-6-6-----------------------------------|
E|-----------------6-6-6-6-6-6-6-6-6-6-6-6-6-6-6-6\--|

G|---------------------------------------------------|
D|----------------------------------8-8-8-8-8-8-8-8--|
A|---------------1/-6-6-6-6-6-6-6-6------------------|
E|-1-1-1-1-1-1-1-------------------------------------|

G|---------------------------------------------------|
D|-8-8-8-8-8-8-8-8\----------------------------------|
A|--------------------------------1/-----------------|
E|------------------1-1-1-1-1-1-1--------------------|

(...)
You are, you are, you are
You are, you are, you are


Repetição do interlúdio:
G|---------------------------------------------------|
D|-----------------------------------------10--------|
A|-6-6-6-6-6-6-/11h13-13-13-13-13-13-13-13-----------|
E|---------------------------------------------------|
                                                      (4x)
G|---------------------------------------------------|
D|-8-8-8-6-6-6-5-5-6-6-6-6-6-6-6-6-------------------|
A|---------------------------------------------------|
E|---------------------------------------------------|


Quarta parte:
G|---------------------------------------------------|
D|---------------------------------------------------|
A|---------------------------------4-4-4-4-4-4-4-4---|
E|-2-2-2-2-2-2-2-2-2-2-2-2-2-2-2-2-------------------|

G|---------------------------------------------------|
D|---------------------------------------------------|
A|---------------------------------------------------|
E|-4-4-4-4-4-4-4-4-2-2-2-2-2-2-2-2-2-2-2-2-2-2-2-2---|

G|---------------------------------------------------|
D|------------------6-6-6-6-6-6-6-6------------------|
A|-/4-4-4-4-4-4-4-4----------------------------------|
E|---------------------------------------------------|

G|---------------------------------------------------|
D|-4-4-4-4-4-4-4-4-4-4-4-4-4-4-4-4-------------------|
A|---------------------------------4-4-4-4-4-4-4-4---|
E|---------------------------------------------------|

G|---------------------------------------------------|
D|---------------------------------------------------|
A|---------------------------------------------------|
E|-4-4-4-4-4-4-4-4-2-2-2-2-2-2-2-2-2-2-2-2-2-2-2-2---|

G|---------------------------------------------------|
D|---------------------------------------------------|
A|-/9-9-9-9-9-9-9-9-9-9-9-9-9-9-9-9------------------|
E|---------------------------------------------------|

(...)
And nothing else compares
Oh nothing else compares
And nothing else compares

Quinta parte:
G|---------------------------------------------------|
D|---------------------------------------------------|
A|-6-------------------------------------------------|
E|---------------------------------------------------|

G|---------------------------------------------------|
D|-----------------------------------------10--------|
A|-6-6-6-6-6-6-/11h13-13-13-13-13-13-13-13-----------|
E|---------------------------------------------------|
                                                      (8x)
G|---------------------------------------------------|
D|-8-8-8-6-6-6-5-5-6-6-6-6-6-6-6-6-------------------|
A|---------------------------------------------------|
E|---------------------------------------------------|

(...)
You are
You are

Home, home where I wanted to go
Home, home where I wanted to go
Home, home where I wanted to go
Home, home where I wanted to go

Final:
G|---------------------------------------------------|
D|---------------------------------------------------|
A|-6---8-6---8---------------------------------------|
E|---6-----6-----------------------------------------|
Composição: Chris Martin / Guy Berryman / Jon Buckland / Will ChampionColaboração e revisão:
  • Vinicius Chagas
  • Filipe Marks

0 comentários

    mostrar mais comentários

    Conseguiu tocar?

    21tocaram1ainda não

    Grave um vídeo tocando Clocks e mande pra gente!

    00:00 / 00:00
    outros vídeos desta música
    repetirqualidadeautomática
    Outro vídeos desta música
      00:00 / 00:00
      automática
      Capítulos
      • Início
      • Tocando a música
      • Tocando Introdução
      • Ensinando Introdução
      • Tocando Primeira Parte
      • Ensinando Primeira Parte
      • Tocando Segunda Parte
      • Ensinando Segunda Parte
      • Tocando Interlúdio
      • Ensinando Interlúdio
      • Tocando Quarte Parte
      • Ensinando Quarta Parte
      • Tocando Quinta Parte e Final
      • Ensinando Quinta Parte
      • Ensinando Final
      • Encerramento
      OK