Cifra Club

Fix You

Coldplay

Tab de baixo: Principal
exibições 10.057
"And the tears come streaming down in your face..."
G|----------------------------------------------------|
D|----------------8---10---8--------------------------|
A|----6-----8h10-----------------6-----8h10-----------| 
E|-------------------------------------------10---8--6|

G|----------------------------------------------------|
D|----------------8---10---8--------------------------|
A|----6-----8h10-----------------6-----8h10-----------| 
E|-------------------------------------------10---8--6|

"Lights will guiiiide..."
G|----------------------------------------------------|
D|----------------------------------------------------|
A|----------------------------------------------------|
E|----4----3\\6-------4----3\\6--------4----3\\6------|

(Instrumental)
G|----------------------------------------------------|
D|----------------8---10---8--------------------------|
A|----6-----8h10-----------------6-----8h10-----------| 
E|-------------------------------------------10---8--6|

"You high up above or down beloow"
G|----------------------------------------------------|
D|----------------8---10---8--------------------------|
A|----6-----8h10-----------------6-----8h10-----------| 
E|-------------------------------------------10---8--6|

G|----------------------------------------------------|
D|----------------8---10---8--------------------------|
A|----6-----8h10-----------------6-----8h10-----------| 
E|-------------------------------------------10---8--6|


"Lights will guiiiide..."
G|----------------------------------------------------|
D|----------------------------------------------------|
A|----------------------------------------------------|
E|----4----3\\6-------4----3\\6--------4----3\\6------|

Ponte:
G|----------------------------------------------------|
D|----------------------------------------------------|
A|---6-------6-------------------6--------------------|
E|-------4-------6-----8-----4--------6---------------|

G|--------------------------------------------------------------|
D|--------------------------------------------------------------|
A|-6-6-6-6-66-66-------------------6-6-6-6-66-66----------------| 
E|----------------4-4-4-4-4-44-44----------------6-6-6-6-66-666-|

G|--------------------------------------------------------------|
D|--------------------------------------------------------------|
A|---------------------------------6-6-6-6-66-66----------------| 
E|-8-8-8-8-88-88--4-4-4-4-4-44-44----------------6-6-6-6-66-666-|

"Tears stream..."
G|--------------------------------------------------------------|
D|--------------------------------------------------------------|
A|-6-6-6-6-66-66-------------------6-6-6-6-66-66----------------| 
E|----------------4-4-4-4-4-44-44----------------6-6-6-6-66-666-|

G|--------------------------------------------------------------|
D|--------------------------------------------------------------|
A|---------------------------------6-6-6-6-66-66----------------| 
E|-8-8-8-8-88-88--4-4-4-4-4-44-44----------------6-6-6-6-66-666-|

G|--------------------------------------------------------------|
D|--------------------------------------------------------------|
A|-6-6-6-6-66-66-------------------6-6-6-6-66-66----------------| 
E|----------------4-4-4-4-4-44-44----------------6-6-6-6-66-666-|

G|--------------------------------------------------------------|
D|--------------------------------------------------------------|
A|---------------------------------6-6-6-6-66-66----------------| 
E|-8-8-8-8-88-88--4-4-4-4-4-44-44----------------6-6-6-6-66-666-|
Composição: Chris Martin / Guy Berryman / Jonny Buckland / Will ChampionColaboração e revisão:
  • Vinicius Chagas
  • Hugo Cardoso
  • Pedro Gabriel

0 comentários

    mostrar mais comentários

    Conseguiu tocar?

    1tocaram0ainda não

    Grave um vídeo tocando Fix You e mande pra gente!

    00:00 / 00:00
    outros vídeos desta música
    repetirqualidadeautomática
    Outro vídeos desta música
      00:00 / 00:00
      automática
      OK