Cifra Club

Moses

Coldplay

Cifra: Principal (violão e guitarra)
exibições 31.030
Tom: A (forma dos acordes no tom de G) Capotraste na 2ª casa
(capo 2ª casa ou 1 tom abaixo)

(riff) (mudança de F#m para E)
|-2--2--2--2--2--0-|
|-2--2--2--2--2--0-|
|-2--2--2--2--x--1-|
|-4--4--4--2--x--2-|
|-4--4--4--x--0--2-|
|-2--0--2--4--0--0-|

(depois do riff de intro)
E|--12-12-12-11-------11----11----11-12-12-12-11------7---7---7---
B|--------------12-10----10----10----------------12-9---9---9-----
G|----------------------------------------------------------------
D|----------------------------------------------------------------
A|----------------------------------------------------------------
E|----------------------------------------------------------------

(intro 2)
E|-12-12-12-11-------11----11----11-12-12-12-11------7----7------
B|--------------12-10----10----10--------------12-9---7-9--9-7-9-7
G|----------------------------------------------------------------
D|----------------------------------------------------------------
A|----------------------------------------------------------------
E|----------------------------------------------------------------

(intro) B F#m F#m E

B   F#m                       E
Come on now, don't you want to see
B   F#m                       E
This thing that's happening to me
B   F#m                       E
Like Moses has power over sea
B   F#m                 E
So you've got power over me

B   F#m                       E
Come on now don't you want to know
You're a refuge, somewhere I can go
You're air that, air that I can breathe
You're my golden opportunity

    D            E
And oh, oh yes i would
           D
If I only could
                E
And you know i would
         D          E
And baby I, oh baby I
I wish

B   F#m                       E
Come on now, don't you want to see
Just what a difference you've made in me
I'll be waiting oh no matter what you say
Cause i've been waiting for days and days and days

    D             E
And oh, oh yes I would
           D
If I only could
                E
And you know I would
         D          E
and baby I, oh baby I

I wish
Bm F#m F#m E
I wish

Bm F#m F#m E
Oh, oh, oh
Oh, oh, oh

D                   E                       D
If the sky's gonna fall down let it fall on me
                 E                          D
If you're gonna break down you can break on me
                   E                        D
If the sky's gonna fall down let it fall on me
                 E
If it's gonna rain down it can rain on me

It can rain on me
Acordes para:
    Composição: Chris Martin / Guy Berryman / Jon Buckland / Will Champion Colaboração e revisão:
    • Rodrigo Ramos
    • Mauricio Cascardo

    0 comentários

    mostrar mais comentários

    Conseguiu tocar?

    3 tocaram 0 ainda não

    Grave um vídeo tocando Moses e mande pra gente!

    00:00 / 00:00
    outros vídeos desta música
    repetir qualidade Automático
    Outro vídeos desta música
    00:00 / 00:00
    Automático
    OK