Cifra Club

Aprenda

Paradise

Coldplay

Cifra: Simplificada (violão e guitarra)
tom: F
          Dm          Bb   F
E|-5-8-10--12-10-8-5-5-5\3-3-
B|---------------------------
G|---------------------------
D|---------------------------   (2x)
A|---------------------------
E|---------------------------


Intro: Gm  Bb  F  C (4x)

  Dm                 Bb
When she was just a girl,
  F              C
She expected the world,
         Dm                Bb
But it flew away from her reach,
     F                   C
So she ran away in her sleep.

            Gm        Bb
Dreamed of para-para   paradise,
 F         C
Para-para   paradise,
 Gm        Bb
Para-para   paradise,
F                C
Every time she closed her eyes.

(Intro)
      Gm            Bb           F             C
E|-10-8-10--8----8-----------------------------------
B|------------10----10-8-10---10-8-10--8----8--------
G|---------------------------------------10----9-7---
D|-------------------------------------------------10
A|---------------------------------------------------
E|---------------------------------------------------


  Dm                 Bb
When she was just a girl,
  F               C
She expected the world,
         Dm                Bb
But it flew away from her reach,
     F                    C
And bullets catch in her teeth.

 Gm
Life goes on,
    Bb
It gets so heavy,
      F              C
The wheel breaks the butterfly.

Bb             F
Every tear, a waterfall.
       Dm                 F
In the night, the stormy night,
               C
She closed her eyes.

        Dm
In the night,
            F
The stormy night,
           C
Away she flied.

            Gm       Bb
I dream of para-para  paradise,
 F        C
Para-para  paradise,
 Gm       Bb
Para-para  paradise,
  F           C
Whoa-oh-oh oh-oooh oh-oh-oh. (2x)

( G  C  Dm  F  C ) (2x)

       Bb         F                C
Still lying underneath the stormy skies.
  Bb           F
She said oh-oh-oh-oh-oh-oh.
            C
I know the sun's set to rise.

               Gm       Bb
This could be para-para  paradise,
 F        C
Para-para  paradise,
 Gm       Bb
Para-para  paradise,
  F           C
Whoa-oh-oh oh-oooh oh-oh-oh (2x)
      Gm         Bb         F        C
E|-6--6--6--6-6-6\5-5-5--5-5-5--5-5-5\3-3-3-
B|------------------------------------------
G|------------------------------------------
D|------------------------------------------
A|------------------------------------------
E|------------------------------------------


               Gm       Bb
This could be para-para  paradise,
 F        C
Para-para  paradise,
 Gm       Bb
Para-para  paradise,
  F           C
Whoa-oh-oh oh-oooh oh-oh-oh

Uuuh-uuu-uuu-uuu-uuu-uuu

( Gm  Bb  F  C )

( Gm  Bb  F  Dm )
Composição de Brian Eno / Chris Martin / Guy Berryman / Jonny Buckland / Will Champion
Colaboração e revisão:
  • Gustavo
  • Luiz Ferreira
  • Marcus Vale
191.427 exibições
    • ½ Tom
    • A
    • Bb
    • B
    • C
    • Db
    • D
    • Eb
    • E
    • F
    • F#
    • G
    • Ab
  • Adicionar à lista

    0 comentários

    Ver todos os comentários
    00:00 / 00:00
    Outros vídeos desta música
    Repetir Qualidade Automático
    Outros vídeos desta música
    00:00 / 00:00
    Automático

    Cifra Club Pro

    Aproveite o Cifra Club com benefícios exclusivos e sem anúncios
    Cifra Club Pro
    Aproveite o Cifra Club com benefícios exclusivos e sem anúncios
    OK