Cifra Club

Shiver

Coldplay

Cifra: Principal
exibições 131.883
Tom: F#
[Intro]

E|--12---9---11---12---9---11---12---9---11---12------|
B|--12----------9-------------9-------------9---------|
G|--9------9-------------9--------------9-------------|
D|----------------------------------------------------|
A|----------------------------------------------------|
E|----------------------------------------------------|

[Intro Riff]

E|-------------------------------------------------------|
B|-------------------------------------------------------|
G|-6h8-8-8-8-6-6-6h9-9-9-9-6-6-6h8-8-8-8-6-6/1-1-1-1/4/6-|
D|-------------------------------------------------------|
A|-------------------------------------------------------|
E|-------------------------------------------------------|

E|-------------------------------------------------------|
B|-------------------------------------------------------|
G|-6h8-8-8-8-6-6-6h9-9-9-9-6-6-6h8-8-8-8-6-6/1-1-1-1/4/6-|
D|-------------------------------------------------------|
A|-------------------------------------------------------|
E|-------------------------------------------------------|

E|-------------------------------------------------------|
B|-------------------------------------------------------|
G|-6h8-8-8-8-6-6-6h9-9-9-9-9/14-14-14-16-16-13/----------|
D|-------------------------------------------------------|
A|-------------------------------------------------------|
E|-------------------------------------------------------|

E|-------------------------------------------------------|
B|-------------------------------------------------------|
G|-6/---------8/----------4------------------------------|
D|-------------------------------------------------------|
A|-------------------------------------------------------|
E|-------------------------------------------------------|

So I look in your direction, but you pay me no attention do you
E|----14----12------11------9----------------------|
B|-------------9-------9------9--------------------|
G|-11----11------11------11-----11-----------------|
D|-------------------------------------------------| (2x)
A|-------------------------------------------------|
E|-------------------------------------------------|

I know you don't listen to me, cos you say you see straight through me, don't you
E|----14----12------11------9----------------------|
B|-------------9-------9------9--------------------|
G|-11----11------11------11-----11-----------------|
D|-------------------------------------------------| (2x)
A|-------------------------------------------------|
E|-------------------------------------------------|

But on and on, from the moment I wake, till the moment I sleep
E|-------------------------------------------------|
B|-------------------------------------------------|
G|-9-9-9-9-9-9p8-8-6----9-9-9-9-9-9p8-8-6----------|
D|-------------------6--------------------8--------|
A|-------------------------------------------------|
E|-------------------------------------------------|

I'll be there by side, just you try and stop me
E|-------------------------------------------------|
B|-------------------------------------------------|
G|-9-9-9-9-9-9p8-8-6----9-9-9-9-9-9p8-8-11---------|
D|-------------------6---------------------8-------|
A|-------------------------------------------------|
E|-------------------------------------------------|

I'll be waiting in line, just you see if you care
E|-------------------------------------------------|
B|-------------------------------------------------|
G|-9-9-9-9-9-9p8-8-6----9-9-9-9-9-9p8-8-6-6--------|
D|-------------------6-----------------------------|
A|-------------------------------------------------|
E|-------------------------------------------------|
   
     Oh oh oh
E|--------------------------------------------------|
B|----0---0-----0---0------0---0--------0----0------|
G|--4---4---4/8---8---8/11---11---11/14---14---14---|
D|--------------------------------------------------|
A|--------------------------------------------------|
E|--------------------------------------------------|

Did you want me to change,  will i change for good
E|--------------------------------------------------|
B|-----4---------4---------4---------4--------------|
G|---4---4-----4---4-----4---4-----4---4------------|
D|-6-------6-5-------5-6-------6-5-------5----------|
A|--------------------------------------------------|
E|--------------------------------------------------|

And I want you to know, that you'll always get your way
E|--------------------------------------------|
B|-----4---------4---------4---------4--------|
G|---4---4-----4---4-----4---4-----4---4------|
D|-6-------6-5-------5-4-------4-4-------4----|
A|--------------------------------------------|
E|--------------------------------------------|

Dnd I wanted to say...
E|-------------------------------------------------|
B|-----4---------4---------4---------4------4-4~~~-|
G|---4---4-----4---4-----4---4-----4---4----4-4~~~-|
D|-6-------6-5-------5-4-------4-2-------2--3/2~~~-|
A|-------------------------------------------------|
E|-------------------------------------------------|

Don't you shiver...
E|-------------------------------------------------------|
B|-------------------------------------------------------|
G|-6h8-8-8-8-6-6-6h9-9-9-9-6-6-6h8-8-8-8-6-6/1-1-1-1/4/6-|
D|-------------------------------------------------------|
A|-------------------------------------------------------|
E|-------------------------------------------------------|

Don't you shiver...
E|-------------------------------------------------------|
B|-------------------------------------------------------|
G|-6h8-8-8-8-6-6-6h9-9-9-9-6-6-6h8-8-8-8-6-6/1-1-1-1/4/6-|
D|-------------------------------------------------------|
A|-------------------------------------------------------|
E|-------------------------------------------------------|

Sing it loud...Whooo oooo ooooo
E|-------------------------------------------------------|
B|-------------------------------------------------------|
G|-6h8-8-8-8-6-6-6h9-9-9-9-9/14-14-14-16-16-13/----------|
D|-------------------------------------------------------|
A|-------------------------------------------------------|
E|-------------------------------------------------------|

Oh I'll always be waiting for you

E|-------------------------------------------------------|
B|-------------------------------------------------------|
G|-6/---------8/----------4------------------------------|
D|-------------------------------------------------------|
A|-------------------------------------------------------|
E|-------------------------------------------------------|

Yeah I'll always be waiting for you

E|----9---11---12---9---11---12---9---11---12------|
B|-----------9-------------9-------------9---------|
G|------9-------------9--------------9-------------|
D|-------------------------------------------------|
A|-------------------------------------------------|
E|-------------------------------------------------|

  Yeah I'll always be waiting and....
E|----9---11---12---9---11---12-----12-12-12-12-12-|
B|-----------9-------------9--------12-12-12-12-12-|
G|------9-------------9-------------9--9--9--9--9--|
D|-------------------------------------------------|
A|-------------------------------------------------|
E|-------------------------------------------------|

[Solo]

E|--------------------------------------------------------12--11--|
B|---7-7-7-7-7-7--10-10-10-10--10-10-10-10-12-12--9-9-9-9-9-9-9-9-|
G|---8-8-8-8-8-8--11-11-11-11--9--9--9--9--9--9---8-8-8-8-8-8-8-8-|
D|---9-9-9-9-9-9--11-11-11-11--11-11-11-11-11-11--9-9-9-9-9-9-9-9-|
A|----------------------------------------------------------------|
E|----------------------------------------------------------------|

   And its you, I hear, so loud and so clear
E|--------------------------------------------------------12--11--|*
B|---7-7-7-7-7-7--10-10-10-10--10-10-10-10-12-12--9-9-9-9-9-9-9-9-|
G|---8-8-8-8-8-8--11-11-11-11--9--9--9--9--9--9---8-8-8-8-8-8-8-8-|
D|---9-9-9-9-9-9--11-11-11-11--11-11-11-11-11-11--9-9-9-9-9-9-9-9-|
A|----------------------------------------------------------------|
E|----------------------------------------------------------------|

I sing it loud...And clear...
E|---------12-11-*------------------------------------------------|
B|---7-7-7-7-7-7--10-10-10-10--10-10-10-10-12-12--9-9-9-9-9-9-9-9-|
G|---8-8-8-8-8-8--11-11-11-11--9--9--9--9--9--9---8-8-8-8-8-8-8-8-|
D|---9-9-9-9-9-9--11-11-11-11--11-11-11-11-11-11--9-9-9-9-9-9-9-9-|
A|----------------------------------------------------------------|
E|----------------------------------------------------------------|

And I always be waiting for you

E|-------------------------------------------------|
B|---0-----0------0--------------------------------|
G|---9-----11-----8--------------------------------|
D|-------------------------------------------------|
A|-------------------------------------------------|
E|-------------------------------------------------|

So i look in your direction and you pay me no attention,
And you know how much I need ya, but you never even see me

E|-------------------------------------------------|
B|-9------12------9------12------9------12--9---12-|
G|-11-----11------11-----11------11-----11--11--11-|
D|-------------------------------------------------|
A|-------------------------------------------------|
E|-------------------------------------------------|
Acordes para:
    Composição: Chris Martin / Guy Berryman / Jon Buckland / Will ChampionColaboração e revisão:
    • Lucas Carvalho

    0 comentários

      mostrar mais comentários

      Conseguiu tocar?

      10tocaram2ainda não

      Grave um vídeo tocando Shiver e mande pra gente!

      00:00 / 00:00
      outros vídeos desta música
      repetirqualidadeautomática
      Outro vídeos desta música
        00:00 / 00:00
        automática
        OK