Cifra Club

Aprenda

Up&Up

Coldplay

Cifra: Principal (violão e guitarra)
tom: C
[Intro]  G  D9  Em7  C
         G  D9  Em7  C

 G
Fixing up a car to drive in it again
 D9
Searching for the water, hoping for the rain
   Em7        C
Up and up, Up and up
 G
Down upon a canvas, working meal to meal
 D9
Waiting for a chance to pick your orange field
   Em7        C
Up and up, Up and up

 G
See a pearl form, a diamond in the rough
 D9
See a bird soaring high above the flood
               Em7                 C
It's in your blood, it's in your blood
G
Underneath the storm an umbrella is saying
 D9
Sitting with the poison takes away the pain
   Em7        C
Up and up, Up and up

 G                                         D
We're gonna get it, get it together right now
                                         F
we're gonna get it, get it together somehow
                                          C
We're gonna get it, get it together and flower 
G
We're gonna get it, get it together
    D                                             F
I know, we're gonna get it, get it together and flow
                                         C
We're gonna get it, get it together and go
              G  D9 Em7  C
Up and up and up

  G
Lying in the gutter, aiming for the moon
  D9
Trying to empty out the ocean with a spoon
       Em7       C
Up and up, Up and up
 G
How come people suffer, how come people part?
 D9                                                   Em7
How come people struggle, how come people break your heart
            C
Break your heart?

 G
Yes I wanna grow, yes I wanna feel
 D9                                      Em7
Yes I wanna know, show me how to heal it up
        C
Heal it up

 G
See the forest there in every seed
D9
Angels in the marble waiting to be freed
      Em7             C
Just need love, just need love
When the going is rough, saying

 G                                         D
We're gonna get it, get it together right now
                                         F
we're gonna get it, get it together somehow
                                          C
We're gonna get it, get it together and flower  
 G
We're gonna get it, get it together
    D                                             F
I know, we're gonna get it, get it together and flow
                                         C
We're gonna get it, get it together and go up
   
             G               D
And you can say what is, or fight for it
  Em7               C
Close your mind or take a risk
         G                  D
You can say it's mine and clench your fist
    Em7             C
Or see each sunrise as a gift


[Solo]  G  D9  F  C
        G  D9  F  C
        G  D   F  C
        G  D   F  C

E|--------------------------------------------|
B|---------------------12--12b13-12-----------|
G|-----------------12---------------14-12-----|
D|-----------12-14------------------------14--| (3x)
A|--10-12/14----------------------------------|
E|--------------------------------------------|

E|-------------------------------------------|
B|--13-13-12-10----10------------------------|
G|--------------12----9-12--10-9-7-----------|
D|---------------------------------10-10-10--|
A|-------------------------------------------|
E|-------------------------------------------|

E|--------------------------------------------|
B|---------------------12--12b13-12-----------|
G|-----------------12---------------14-12-----|
D|-----------12-14------------------------14--| (3x)
A|--10-12/14----------------------------------|
E|--------------------------------------------|

E|---------------------------------------------------|
B|--15--12-13-15--12-13-15--15-13-12-----------------|
G|-----------------------------------14-12-12-14-12--|
D|---------------------------------------------------|
A|---------------------------------------------------|
E|---------------------------------------------------|

E|--15-15-15-15-15-15/17--12-------------------------|
B|---------------------------15----------------------|
G|---------------------------------------------------| 
D|---------------------------------------------------| (2x)
A|---------------------------------------------------|
E|---------------------------------------------------|

E|--15-15-15-15-15-15/17--12-20--20-19-17----17------------------------------|
B|----------------------------------------20----17-20--20-18-17-15-17--------|
G|--------------------------------------------------------------------17-16--|
D|---------------------------------------------------------------------------|
A|---------------------------------------------------------------------------|
E|---------------------------------------------------------------------------|

E|--15-15-15-15-15-15/17--12------------------------|
B|---------------------------15---------------------|
G|--------------------------------------------------| 
D|--------------------------------------------------| (2x)
A|--------------------------------------------------|
E|--------------------------------------------------|

E|--15-15-15-15-15-15/17--12--13-------12-------------------------|
B|-------------------------------12-13----12-13-15--15-13-12------|
G|-----------------------------------------------------------14-12|
D|----------------------------------------------------------------|
A|----------------------------------------------------------------|
E|----------------------------------------------------------------|

 G                                         D
We're gonna get it, get it together right now                                      
                                         F
We're gonna get it, get it together somehow                 
                                          C
We're gonna get it, get it together and flow  
 G
We're gonna get it, get it together
    D                                             F
I know, we're gonna get it, get it together and flow
                                         C
We're gonna get it, get it together and go
              G
Up and up and up

[Solo]  G  D  F  C
        G  D  F  C
        G  D  F  C
        G  D  F  C

E|--------------------------------------------------|          
B|--8/13-13-13-13-13-13-13-13-13--12-10-10-8-8-8-8--|         
G|--------------------------------------------------|          
D|--------------------------------------------------|          
A|--------------------------------------------------|          
E|--------------------------------------------------| 

E|----------------------------------------------|      
B|--8/13-13-13-13-13-13-13-13-13-13-13-13-15-8--|      
G|----------------------------------------------|      
D|----------------------------------------------|      
A|----------------------------------------------|      
E|----------------------------------------------| 

E|------------------------------------------------|                                
B|-8-8-8-8-8-10b11r10-8--8-8-8-8-10b11r10-8--8-8--|                                
G|------------------------------------------------|                                
D|------------------------------------------------|                                
A|------------------------------------------------|                                
E|------------------------------------------------|  

[G  D9  Em7  C]

 G
Fixing up a car to drive in it again
  D9                                             Em7   C
When you're in pain, when you think you've had enough
                G   D9  Em7  C
Don't ever give up

[C  Am  G  G]
Composição de Chris Martin / Guy Berryman / Jonny Buckland / Will Champion
Colaboração e revisão:
  • Vitor Silva
  • Kleyton Pires
  • Lucas Carvalho
33.764 exibições
    • ½ Tom
    • A
    • Bb
    • B
    • C
    • Db
    • D
    • Eb
    • E
    • F
    • F#
    • G
    • Ab
  • Adicionar à lista

    0 comentários

    Ver todos os comentários

    Conseguiu tocar?

    15 Tocaram 0 Ainda não

    Grave um vídeo tocando Up&Up e nos envie!

    00:00 / 00:00
    Outros vídeos desta música
    Repetir Qualidade Automático
    Outros vídeos desta música
    00:00 / 00:00
    Automático

    Cifra Club Pro

    Aproveite o Cifra Club com benefícios exclusivos e sem anúncios
    Cifra Club Pro
    Aproveite o Cifra Club com benefícios exclusivos e sem anúncios
    OK