Cifra Club

Viva La Vida

Coldplay

Tab de baixo: Principal
exibições 11.184
Tuning:Standard


Verse 
Durante os primeiros versos não há baixo, mas na versão ao vivo Guy Berryman toca o seguinte após o intervalo entre a primeira e a segunda estrofe:

G|--17~--15~--17~--12~--17~--15~--19~--12~----------------------------------|
D|--------------------------------------------------------------------------|
A|--------------------------------------------------------------------------|
E|--------------------------------------------------------------------------|


(Refrões)
(I hear Jerusalem beels...)

G|---------------------------------------------------------------------------|
D|---------------------------------------------------------------------------|
A|-4-4-4-4-------------------------4-4-4-4-----------------------------------|
E|--------0-0-00-0-4-4-4-41-1-11-1--------0-0-00-0-4-4-4-41-1-11-1-----------|

G|---------------------------------------------------------------------------|
D|-------------------------3-3-33-3------------------------------------------|
A|-4-4-4-46-6-66--------------------4-4-4-4----------------------------------|
E|---------------2-4-4-4-4-----------------0-0-00-0-4-4-4-41-1-11-1----------|



Só volte à tocar na parte que canta: "Revolutionaires waited for my head..."

G|---------------------------------------------------------------------------|
D|---------------------------------------------------------------------------|
A|-4-4-4-46-6-66-6-11-11-11-11-8-8-88-8--4-4-4-4-----------------------------|
E|-----------------------------------------------0-0-00-0-4-4-4-41-1-11-1----|

Segue-se então:

Refrão 

e o refrão final, após a parte do interludio.
Composição: Chris Martin / Guy Berryman / Jonny Buckland / Will ChampionColaboração e revisão:
  • Vinicius Chagas
  • Élison Duarte

0 comentários

    mostrar mais comentários

    Conseguiu tocar?

    11tocaram0ainda não

    Grave um vídeo tocando Viva La Vida e mande pra gente!

    00:00 / 00:00
    outros vídeos desta música
    repetirqualidadeautomática
    Outro vídeos desta música
      00:00 / 00:00
      automática
      OK