Cifra Club

Aprenda

Yellow

Coldplay

Tab de baixo: Principal
Introdução 

Parte 1

G|--------------------------------------------|
D|--------------------------------------------|
A|--------------------------------------------|
E|-7-7-7-7--7-7-7-7--7-7-7-7--7-7-7-7---------|

Parte 2

G|--------------------------------------------|
D|--------------------------------------------|
A|-9-9-9-9--9-9-9-9--9-9-9-9--9-9-9-9---------|
E|--------------------------------------------|

Parte 3

G|--------------------------------------------|
D|--------------------------------------------|
A|--------------------------------------------|
E|-0-0-0-0--0-0-0-0--0-0-0-0--0-0-0-0---------|

Parte 4

G|--------------------------------------------|
D|--------------------------------------------|
A|--------------------------------------------|
E|-7-7-7-7--7-7-7-7--7-7-7-7--7-7-7-7---------|

Primeira parte ( tocar 3x )

Look at the stars...

Parte 1

G|--------------------------------------------|
D|--------------------------------------------|
A|--------------------------------------------|
E|-7-7-7-7--7-7-7-7--7-7-7-7--7-7-7-7---------|

Parte 2

G|--------------------------------------------|
D|--------------------------------------------|
A|-9-9-9-9--9-9-9-9--9-9-9-9--9-9-9-9---------|
E|--------------------------------------------|

Parte 3

G|--------------------------------------------|
D|--------------------------------------------|
A|-7-7-7-7--7-7-7-7--7-7-7-7--7-7-7-7---------|
E|--------------------------------------------|

Refrão

Your skin...

Parte 1

G|--------------------------------------------|
D|-------------------7h9-9-9-9--9-9-9-9-------|
A|--------------------------------------------|
E|-7-7-7-7--7-7-7-7---------------------------|

Parte 2 

G|--------------------------------------------|
D|--------9-------------------9---------------|
A|-7--9-9---11-9--9--7--7-9-9---11-9--9-------|
E|--------------------------------------------|

Parte 3

G|--------------------------------------------|
D|---------9----------------------------------|
A|-7-7-9-9---11-9--9--7-----------------------|
E|--------------------------------------------|

Introdução 2

Parte 1

G|--------------------------------------------|
D|--------------------------------------------|
A|-2-2-2-2--2-2-2-2--2-2-2-2--2-2-2-2---------|
E|--------------------------------------------|

Parte 2

G|--------------------------------------------|
D|--------------------------------------------|
A|--------------------------------------------|
E|-2-2-2-2--2-2-2-2--2-2-2-2--2-2-2-2---------|

Parte 3

G|--------------------------------------------|
D|--------------------------------------------|
A|--------------------------------------------|
E|-0-0-0-0--0-0-0-0--0-0-0-0--0-0-0-0---------|

Parte 4

G|--------------------------------------------|
D|--------------------------------------------|
A|-2-2-2-2--2-2-2-2--2-2-2-2--2-2-2-2---------|
E|--------------------------------------------|

Segunda parte ( tocar 2x )

I swam across...

Parte 1

G|--------------------------------------------|
D|--------------------------------------------|
A|-2-2-2-2—2-2-2-2--2-2-2-2--2-2-2-2/---------|
E|--------------------------------------------|
Parte 2

G|--------------------------------------------|
D|--------------------------------------------|
A|-9-9-9-9--9-9-9-9--9-9-9-9--9-9-9-9---------|
E|--------------------------------------------|

Parte 3

G|--------------------------------------------|
D|--------------------------------------------|
A|-7-7-7-7--7-7-7-7--7-7-7-7--7-7-7-7---------|
E|--------------------------------------------|

Segundo Refrão

Your skin...

Parte 1

G|--------------------------------------------|
D|--------------------------------------------|
A|-2-2-2-2--2-2-2-2--2-2-2-2--2-2-2-2---------|
E|--------------------------------------------|

Parte 2 

G|--------------------------------------------|
D|--------9-------------------9---------------|
A|-7--9-9---11-9--9--7--7-9-9---11-9--9-------|
E|--------------------------------------------|

Parte 3

G|--------------------------------------------|
D|---------9----------------------------------|
A|-7-7-9-9---11-9--9--7-----------------------|
E|--------------------------------------------|

Introdução 3

Parte 1

G|--------------------------------------------|
D|--------------------------------------------|
A|-2-2-2-2--2-2-2-2--2-2-2-2--2-2-2-2---------|
E|--------------------------------------------|

Parte 2

G|--------------------------------------------|
D|--------------------------------------------|
A|--------------------------------------------|
E|-2-2-2-2--2-2-2-2--2-2-2-2--2-2-2-2---------|

Parte 3

G|--------------------------------------------|
D|--------------------------------------------|
A|--------------------------------------------|
E|-0-0-0-0--0-0-0-0--0-0-0-0--0-0-0-0---------|

Parte 4

G|--------------------------------------------|
D|--------------------------------------------|
A|-2-2-2-2--2-2-2-2--2-2-2-2--2-2-2-2---------|
E|--------------------------------------------|

Refrão final ( tocar 2x )

It's true,look how they shine for you... 

Parte 1

G|--------------------------------------------|
D|--------------------------------------------|
A|-2-2-2-2—2-2-2-2--2-2-2-2--2-2-2-2/---------|
E|--------------------------------------------|

Parte 2

G|--------------------------------------------|
D|--------------------------------------------|
A|-9-9-9-9--9-9-9-9--9-9-9-9--9-9-9-9---------|
E|--------------------------------------------|

Parte 3

G|--------------------------------------------|
D|--------------------------------------------|
A|-7-7-7-7--7-7-7-7--7-7-7-7--7-7-7-7---------|
E|--------------------------------------------|

Parte Final

Só voz,violão e teclado

Parte 1

Look at the stars...

G|--------------------------------------------|
D|--------------------------------------------|
A|-2------------------------------------------|
E|--------------------------------------------|
Composição de Chris Martin / Guy Berryman / Jon Buckland / Will Champion
Colaboração e revisão:
  • Reginaldo Costa
  • Vinicius Chagas
43.290 exibições

0 comentários

Ver todos os comentários
00:00 / 00:00
Outros vídeos desta música
Repetir Qualidade Automático
Outros vídeos desta música
00:00 / 00:00
Automático
Capítulos
  • Tocando a Música
  • Dicas Iniciais / Equipamentos
  • Configuração do Pedal
  • Tocando a Introdução
  • Ensinando a Introdução
  • Tocando Primeira Parte
  • Ensinando Primeira Parte
  • Tocando Refrão 1
  • Refrão 1 - Parte 1 de 3
  • Refrão 1 - Parte 2 de 3
  • Refrão 1 - Parte 3 de 3
  • Tocando Introdução 2
  • Ensinando Introdução 2
  • Tocando a Segunda Parte
  • Ensinando Segunda Parte
  • Tocando Repetições e Refrão Final
  • Ensinando Refrão 2
  • Ensinando Refrão Final
  • Encerramento
  • Ficha Técnica / Erros de Gravação

Cifra Club Pro

Aproveite o Cifra Club com benefícios exclusivos e sem anúncios
Cifra Club Pro
Aproveite o Cifra Club com benefícios exclusivos e sem anúncios
OK