Cifra Club

Aprenda

Yellow

Coldplay

Tab de baixo: Original
Introdução 


G|--------------------------------------------|
D|--------------------------------------------|
A|--------------------------------------------|
E|-7-7-7-7--7-7-7-7--7-7-7-7--7-7-7-7---------|

G|--------------------------------------------|
D|--------------------------------------------|
A|--------------------------------------------|
E|-2-2-2-2--2-2-2-2--2-2-2-2--2-2-2-2---------|

G|--------------------------------------------|
D|--------------------------------------------|
A|--------------------------------------------|
E|-0-0-0-0--0-0-0-0--0-0-0-0--0-0-0-0---------|

G|--------------------------------------------|
D|--------------------------------------------|
A|--------------------------------------------|
E|-7-7-7-7--7-7-7-7--7-7-7-7--7-7-7-7---------|


Primeira parte 
Look at the stars...

G|--------------------------------------------|
D|--------------------------------------------|
A|--------------------------------------------|
E|-7-7-7-7--7-7-7-7--7-7-7-7--7-7-7-7---------|

G|--------------------------------------------|
D|--------------------------------------------|
A|-9-9-9-9--9-9-9-9--9-9-9-9--9-9-9-9---------|
E|--------------------------------------------|

G|--------------------------------------------|
D|--------------------------------------------|
A|-7-7-7-7--7-7-7-7--7-7-7-7--7-7-7-7---------|
E|--------------------------------------------|

G|--------------------------------------------|
D|--------------------------------------------|
A|--------------------------------------------|
E|-7-7-7-7--7-7-7-7--7-7-7-7--7-7-7-7---------|

G|--------------------------------------------|
D|--------------------------------------------|
A|-9-9-9-9--9-9-9-9--9-9-9-9--9-9-9-9---------|
E|--------------------------------------------|

G|--------------------------------------------|
D|--------------------------------------------|
A|-7-7-7-7--7-7-7-7--7-7-7-7--7-7-7-7---------|
E|--------------------------------------------|

G|--------------------------------------------|
D|--------------------------------------------|
A|--------------------------------------------|
E|-7-7-7-7--7-7-7-7--7-7-7-7--7-7-7-7---------|

G|--------------------------------------------|
D|--------------------------------------------|
A|--------------------------------------------|
E|-2-2-2-2--2-2-2-2--2-2-2-2--2-2-2-2---------|

G|--------------------------------------------|
D|--------------------------------------------|
A|--------------------------------------------|
E|-0-0-0-0--0-0-0-0--0-0-0-0--0-0-0-0---------|

G|--------------------------------------------|
D|--------------------------------------------|
A|--------------------------------------------|
E|-7-7-7-7--7-7-7-7--7-7-7-7--7-7-7-7---------|


Refrão ( 3 x )

G|--------------------------------------------|
D|---------9-6--6-----------------------------|
A|-7-7-9-9---------7--7-9-9-------------------|
E|--------------------------------------------|


Repete a Introdução

G|--------------------------------------------|
D|--------------------------------------------|
A|--------------------------------------------|
E|-7-7-7-7--7-7-7-7--7-7-7-7--7-7-7-7---------|

G|--------------------------------------------|
D|--------------------------------------------|
A|--------------------------------------------|
E|-2-2-2-2--2-2-2-2--2-2-2-2--2-2-2-2---------|

G|--------------------------------------------|
D|--------------------------------------------|
A|--------------------------------------------|
E|-0-0-0-0--0-0-0-0--0-0-0-0--0-0-0-0---------|

G|--------------------------------------------|
D|--------------------------------------------|
A|--------------------------------------------|
E|-7-7-7-7--7-7-7-7--7-7-7-7--7-7-7-7---------|


versos...
(i swam across. )

G|--------------------------------------------|
D|--------------------------------------------|
A|--------------------------------------------|
E|-7-7-7-7--7-7-7-7--7-7-7-7--7-7-7-7---------|

G|--------------------------------------------|
D|--------------------------------------------|
A|-9-9-9-9--9-9-9-9--9-9-9-9--9-9-9-9---------|
E|--------------------------------------------|

G|--------------------------------------------|
D|--------------------------------------------|
A|-7-7-7-7--7-7-7-7--7-7-7-7--7-7-7-7---------|
E|--------------------------------------------|

G|--------------------------------------------|
D|--------------------------------------------|
A|--------------------------------------------|
E|-7-7-7-7--7-7-7-7--7-7-7-7--7-7-7-7---------|

G|--------------------------------------------|
D|--------------------------------------------|
A|--------------------------------------------|
E|-2-2-2-2--2-2-2-2--2-2-2-2--2-2-2-2---------|

G|--------------------------------------------|
D|--------------------------------------------|
A|--------------------------------------------|
E|-0-0-0-0--0-0-0-0--0-0-0-0--0-0-0-0---------|

G|--------------------------------------------|
D|--------------------------------------------|
A|--------------------------------------------|
E|-7-7-7-7--7-7-7-7--7-7-7-7--7-7-7-7---------|


Refrão ( 3 x )

G|--------------------------------------------|
D|---------9-6-6------------------------------|
A|-7-7-9-9---------7--7-9-9-------------------|
E|--------------------------------------------|


Repete a introdução..

G|--------------------------------------------|
D|--------------------------------------------|
A|--------------------------------------------|
E|-7-7-7-7--7-7-7-7--7-7-7-7--7-7-7-7---------|

G|--------------------------------------------|
D|--------------------------------------------|
A|--------------------------------------------|
E|-2-2-2-2--2-2-2-2--2-2-2-2--2-2-2-2---------|

G|--------------------------------------------|
D|--------------------------------------------|
A|--------------------------------------------|
E|-0-0-0-0--0-0-0-0--0-0-0-0--0-0-0-0---------|

G|--------------------------------------------|
D|--------------------------------------------|
A|--------------------------------------------|
E|-7-7-7-7--7-7-7-7--7-7-7-7--7-7-7-7---------|




It's true,look how they shine for you... 

G|--------------------------------------------|
D|--------------------------------------------|
A|--------------------------------------------|
E|-7-7-7-7--7-7-7-7--7-7-7-7--7-7-7-7---------|

G|--------------------------------------------|
D|--------------------------------------------|
A|--------------------------------------------|
E|-2-2-2-2--2-2-2-2--2-2-2-2--2-2-2-2---------|

G|--------------------------------------------|
D|--------------------------------------------|
A|--------------------------------------------|
E|-0-0-0-0--0-0-0-0--0-0-0-0--0-0-0-0---------|

G|--------------------------------------------|
D|--------------------------------------------|
A|--------------------------------------------|
E|-7-7-7-7--7-7-7-7--7-7-7-7--7-7-7-7---------|

G|--------------------------------------------|
D|--------------------------------------------|
A|-9-9-9-9--9-9-9-9--9-9-9-9--9-9-9-9---------|
E|--------------------------------------------|

G|--------------------------------------------|
D|--------------------------------------------|
A|-7-7-7-7--7-7-7-7--7-7-7-7--7-7-7-7---------|
E|--------------------------------------7~----|

Parte Final

Só voz,violão e teclado

Parte 1

Look at the stars...

G|--------------------------------------------|
D|--------------------------------------------|
A|-9~~----7~~---------------------------------|
E|--------------------------------------------|
Composição de Chris Martin / Guy Berryman / Jon Buckland / Will Champion
Colaboração e revisão:
  • Vinicius Chagas
1.257 exibições

0 comentários

Ver todos os comentários
00:00 / 00:00
Outros vídeos desta música
Repetir Qualidade Automático
Outros vídeos desta música
00:00 / 00:00
Automático

Cifra Club Pro

Aproveite o Cifra Club com benefícios exclusivos e sem anúncios
Cifra Club Pro
Aproveite o Cifra Club com benefícios exclusivos e sem anúncios
OK