Cifra Club

Signos

Conrado e Aleksandro

Cifra: Principal (violão e guitarra)
exibições 101.766
Tom: E
[Intro] E  A  E  B  C#m  A  E  B

E|-12-14-16-12--14-16-12--12/11----------12----------17----16-21----19--
B|------------------------------12-12/14----14-10-------17-------21-----
D|----------------------------------------------------------------------
G|----------------------------------------------------------------------
A|----------------------------------------------------------------------
E|----------------------------------------------------------------------

C#m                A      E                     B
Se eu fosse ouvir os outros, o que seria do meu coração
C#m           A      E                     B
Apenas uma história, um romance com a solidão
                A                      E
Ninguém vai entender não precisa explicar
            B                             C#m
Essa é nossa história a gente sabe onde vai dar
               A                   E
Tudo que prometi vou conseguir provar
                   B
E no final das contas o amor não vai errar

 E                B             C#m
Dizem que nossos signos não se combinam
                       A                  E
Que os astros não conspiram à favor de nós
                    B                 A
Que foi um erro do cupido, gafe do destino
                         B                       E
Eles não sabem o que se passa em baixo dos lençóis

( E  A  E  B  C#m  A  E  B )

E|-12-14-16-12--14-16-12--12/11----------12----------17----16-21----19--
B|------------------------------12-12/14----14-10-------17-------21-----
D|----------------------------------------------------------------------
G|----------------------------------------------------------------------
A|----------------------------------------------------------------------
E|----------------------------------------------------------------------

C#m                A      E                     B
Se eu fosse ouvir os outros, o que seria do meu coração
C#m           A      E                     B
Apenas uma história, um romance com a solidão
                A                      E
Ninguém vai entender não precisa explicar
            B                             C#m
Essa é nossa história a gente sabe onde vai dar
               A                   E
Tudo que prometi vou conseguir provar
                   B
E no final das contas o amor não vai errar
 E                B             C#m
Dizem que nossos signos não se combinam
                       A                  E
Que os astros não conspiram à favor de nós
                    B                 A
Que foi um erro do cupido, gafe do destino
                         B                       E
Eles não sabem o que se passa em baixo dos lençóis
Acordes para:

    0 comentários

      mostrar mais comentários

      Conseguiu tocar?

      20tocaram0ainda não

      Grave um vídeo tocando Signos e mande pra gente!

      00:00 / 00:00
      outros vídeos desta música
      repetirqualidadeAutomático
      Outro vídeos desta música
        00:00 / 00:00
        OK