Cifra Club

Além de Nós

CPM 22

Cifra: Versão 3 (violão e guitarra)
tom: E
Intro

Riff 1 só a Guitarra 1
(ouçam bem a musica para entender)
e|---------------------------|-------------------------------------||
B|---------------------------|------5--------5--------5--------5---||
G|------6-----6-----6-----6--|----6---6----6---6----6---6----6---6-||
D|----6-----6-----6-----6----|-------------------------------------||
A|--4-----0------------------|--4--------0-------------------------||
E|--------------0-----4------|--------------------0--------4-------||



Verso
Guitarra 1
C#-E                                C#-E
e|--------------------------0-||   e|-----------------0-||
B|--------------------------0-||   B|-----------------0-||
G|--------------------------9-||   G|-----------------9-||
D|-6-6-x--6-6--6-x-6-6--6-x-9-||1x D|-6-6-x--6-6--6-x-9-|| 1x
A|-4-4-x--4-4--4-x-4-4--4-x-7-||   A|-4-4-x--4-4--4-x-7-||
E|----------------------------||   E|-------------------||

Guitarra 2
C#-A-E                               C#-A-E
e|--------------------------0-||   e|-----------------0-||
B|--------------------------0-||   B|-----------------0-||
G|--------------------------9-||   G|-----------------9-||
D|-6-6-x--6-6--6-x-7-7--7-x-9-||1x D|-6-6-x--7-7--7-x-9-|| 1x
A|-4-4-x--4-4--4-x-7-7--7-x-7-||   A|-4-4-x--7-7--7-x-7-||
E|-----------------5-5--5-x---||   E|--------5-5--5-x---||
Eu sei
Quem deu o primeiro passo foi você
Agora é questão de tempo



Pré Refrão
Guitarra 1
C#-E                                 Riff 2
e|-------------------------------| e|----------------------------------------------||
B|-------------------------------| B|----------------------------------------------||
G|-----------------9-9-9-9-9-9-9-| G|-14-14-x-13-13--13-x-14-14--14-x-13-13-13--13-||
D|-6-6-6-6-6-6-6-6-9-9-9-9-9-9-9-| D|-0--0-x--0--0---0--x--0--0--0--x--0--0--0---0-||
A|-4-4-4-4-4-4-4-4-7-7-7-7-7-7-7-| A|-12-12-x-12-12--12-x-12-12--12-x-12-12-12--12-||
E|-------------------------------| E|----------------------------------------------||

Guitarra 2
C#-E-A
e|----------------------------------------------------------------||
B|----------------------------------------------------------------||
G|-----------------9-9-9-9-9-9-9----------------------------------||
D|-6-6-6-6-6-6-6-6-9-9-9-9-9-9-9-7-7-x-7-7--7-x-7-7--7-x-7-7--7-x-||
A|-4-4-4-4-4-4-4-4-7-7-7-7-7-7-7-7-7-x-7-7--7-x-7-7--7-x-7-7--7-x-||
E|-------------------------------5-5-x-5-5--5-x-5-5--5-x-5-5--5-x-||
Quebro o seu mundo, e é tudo horrível


Guitarra 1
C#-E                                 Riff 3
e|-------------------------------| e|----------------------------------------------||
B|-------------------------------| B|----------------------------------------------||
G|-----------------9-9-9-9-9-9-9-| G|-14-14-x-13-13--13-x--------------------------||
D|-6-6-6-6-6-6-6-6-9-9-9-9-9-9-9-| D|--0--0-x--0--0---0-x-14-14--14-x-14-14-14--14-||
A|-4-4-4-4-4-4-4-4-7-7-7-7-7-7-7-| A|-12-12-x-12-12--12-x-12-12--12-x-12-12-12--12-||
E|-------------------------------| E|----------------------------------------------||

Guitarra 2
C#-E-A
e|----------------------------------------------------------------||
B|----------------------------------------------------------------||
G|-----------------9-9-9-9-9-9-9----------------------------------||
D|-6-6-6-6-6-6-6-6-9-9-9-9-9-9-9-7-7-x-7-7--7-x-7-7--7-x-7-7--7-x-||
A|-4-4-4-4-4-4-4-4-7-7-7-7-7-7-7-7-7-x-7-7--7-x-7-7--7-x-7-7--7-x-||
E|-------------------------------5-5-x-5-5--5-x-5-5--5-x-5-5--5-x-||
Quebro o seu mundo, te descubro sensível



Refrão:
Guitarras 1 e 2 (uma com distorção e outra sem)
F#-A-C#-B
e|-------------------------------------------------------------------------||
B|-------------------------------------------------------------------------||
G|-------------------------------------------------------------------------||
D|-4-4-4-4-4-4-4-4-4-7-7-7-7-7-7-7-7-7-6-6-6-6-6-6-6-6-6-4-4-4-4-4-4-4-4-4-|| 2x
A|-4-4-4-4-4-4-4-4-4-7-7-7-7-7-7-7-7-7-4-4-4-4-4-4-4-4-4-2-2-2-2-2-2-2-2-2-||
E|-2-2-2-2-2-2-2-2-2-5-5-5-5-5-5-5-5-5-------------------------------------||
Já não nos resta (nos resta) 
Mais nada (mais nada)
Além de nós dois


Verso
Guitarra 1
C#-E                                C#-E
e|--------------------------0-||   e|-----------------0-||
B|--------------------------0-||   B|-----------------0-||
G|--------------------------9-||   G|-----------------9-||
D|-6-6-x--6-6--6-x-6-6--6-x-9-||1x D|-6-6-x--6-6--6-x-9-|| 1x
A|-4-4-x--4-4--4-x-4-4--4-x-7-||   A|-4-4-x--4-4--4-x-7-||
E|----------------------------||   E|-------------------||
Eu sei
Quem cometeu os erros foi você

Guitarra 2
C#-A-E                               C#-A-E
e|--------------------------0-||   e|-----------------0-||
B|--------------------------0-||   B|-----------------0-||
G|--------------------------9-||   G|-----------------9-||
D|-6-6-x--6-6--6-x-7-7--7-x-9-||1x D|-6-6-x--7-7--7-x-9-|| 1x
A|-4-4-x--4-4--4-x-7-7--7-x-7-||   A|-4-4-x--7-7--7-x-7-||
E|-----------------5-5--5-x---||   E|--------5-5--5-x---||
E agora tudo faz sentido



Pré Refrão
Guitarra 1
C#-E                                 Riff 2
e|-------------------------------| e|----------------------------------------------||
B|-------------------------------| B|----------------------------------------------||
G|-----------------9-9-9-9-9-9-9-| G|-14-14-x-13-13--13-x-14-14--14-x-13-13-13--13-||
D|-6-6-6-6-6-6-6-6-9-9-9-9-9-9-9-| D|-0--0-x--0--0---0--x--0--0--0--x--0--0--0---0-||
A|-4-4-4-4-4-4-4-4-7-7-7-7-7-7-7-| A|-12-12-x-12-12--12-x-12-12--12-x-12-12-12--12-||
E|-------------------------------| E|----------------------------------------------||

Guitarra 2
C#-E-A
e|----------------------------------------------------------------||
B|----------------------------------------------------------------||
G|-----------------9-9-9-9-9-9-9----------------------------------||
D|-6-6-6-6-6-6-6-6-9-9-9-9-9-9-9-7-7-x-7-7--7-x-7-7--7-x-7-7--7-x-||
A|-4-4-4-4-4-4-4-4-7-7-7-7-7-7-7-7-7-x-7-7--7-x-7-7--7-x-7-7--7-x-||
E|-------------------------------5-5-x-5-5--5-x-5-5--5-x-5-5--5-x-||
Quebro o seu mundo, e é tudo horrível


Guitarra 1
C#-E                                 Riff 3
e|-------------------------------| e|----------------------------------------------||
B|-------------------------------| B|----------------------------------------------||
G|-----------------9-9-9-9-9-9-9-| G|-14-14-x-13-13--13-x--------------------------||
D|-6-6-6-6-6-6-6-6-9-9-9-9-9-9-9-| D|--0--0-x--0--0---0-x-14-14--14-x-14-14-14--14-||
A|-4-4-4-4-4-4-4-4-7-7-7-7-7-7-7-| A|-12-12-x-12-12--12-x-12-12--12-x-12-12-12--12-||
E|-------------------------------| E|----------------------------------------------||

Guitarra 2
C#-E-A
e|----------------------------------------------------------------||
B|----------------------------------------------------------------||
G|-----------------9-9-9-9-9-9-9----------------------------------||
D|-6-6-6-6-6-6-6-6-9-9-9-9-9-9-9-7-7-x-7-7--7-x-7-7--7-x-7-7--7-x-||
A|-4-4-4-4-4-4-4-4-7-7-7-7-7-7-7-7-7-x-7-7--7-x-7-7--7-x-7-7--7-x-||
E|-------------------------------5-5-x-5-5--5-x-5-5--5-x-5-5--5-x-||
Quebro o seu mundo, te descubro sensível



Guitarras 1 e 2 (uma com distorção e outra sem)
F#-A-C#-B
e|-------------------------------------------------------------------------||
B|-------------------------------------------------------------------------||
G|-------------------------------------------------------------------------||
D|-4-4-4-4-4-4-4-4-4-7-7-7-7-7-7-7-7-7-6-6-6-6-6-6-6-6-6-4-4-4-4-4-4-4-4-4-|| 3x
A|-4-4-4-4-4-4-4-4-4-7-7-7-7-7-7-7-7-7-4-4-4-4-4-4-4-4-4-2-2-2-2-2-2-2-2-2-||
E|-2-2-2-2-2-2-2-2-2-5-5-5-5-5-5-5-5-5-------------------------------------||
Já não nos resta (nos resta) 
Mais nada (mais nada)
Além de nós dois
Já não nos resta (nos resta) 
Mais nada (mais nada)
Além de nós dois
Já não nos resta (nos resta)
Mais nada (Mais nada)
Mais nada


Repete Riff 1 da intro
só a Guitarra 1
e|---------------------------|-------------------------------------||
B|---------------------------|------5--------5--------5--------5---||
G|------6-----6-----6-----6--|----6---6----6---6----6---6----6---6-||
D|----6-----6-----6-----6----|-------------------------------------||
A|--4-----0------------------|--4--------0-------------------------||
E|--------------0-----4------|--------------------0--------4-------||



Guitarra 1
Riff
e|----------------------------------------------------------------||
B|----------------------------------------------------------------||
G|--6-6-6-6-6-6-6-6-6-6-6/9-9-9-9\11-11-11-11/9-9-9-9\11-11-11-11-||
D|--x-x-x-x-x-x-x-x-x-x-x/x-x-x-x\x--x--x--x/-x-x-x-x\x--x--x--x--||
A|--4-4-4-4-4-4-4-4-4-4-4/7-7-7-7\9--9--9--9/-7-7-7-7\9--9--9--9--||
E|----------------------------------------------------------------||
Guitarra 2
e|----------------------------------------------------------------------------------||
B|----------------------------------------------------------------------------------||
G|----------------------------------------------------------------------------------||
D|--6-6-4-6-6-6-6-6-6-6-7-7-7-7-7-7-7-7-7-7-9-9-9-9-9-9-9-9-9-9-9-9-9-9-9-9-9-9-9-9-||
A|--4-4-4-4-4-4-4-4-4-4-7-7-7-7-7-7-7-7-7-7-7-7-7-7-7-7-7-7-7-7-7-7-7-7-7-7-7-7-7-7-||
E|----------------------5-5-5-5-5-5-5-5-5-5-----------------------------------------||
Já não me importa, o tempo perdido

Guitarra 1
e|--------------------------------------------------------------------||
B|--------------------------------------------------------------------||
G|--6-6-6-6-6-6-6-6-6-6-6/9-9-9-9\11-11-11-11/13-13-13-13\14-14-14-14-||
D|--x-x-x-x-x-x-x-x-x-x-x/x-x-x-x\x--x--x--x---x--x--x--x--x--x--x--x-||
A|--4-4-4-4-4-4-4-4-4-4-4/7-7-7-7\9--9--9--9/-11-11-11-11\12-12-12-12-||
E|--------------------------------------------------------------------||
Guitarra 2
e|----------------------------------------------------------------------------------|
B|----------------------------------------------------------------------------------|
G|----------------------------------------------------------------------------------|
D|--6-6-4-6-6-6-6-6-6-6-7-7-7-7-7-7-7-7-7-7-9-9-9-9-9-9-9-9-9-9-9-9-9-9-9-9-9-9-9-9-|
A|--4-4-4-4-4-4-4-4-4-4-7-7-7-7-7-7-7-7-7-7-7-7-7-7-7-7-7-7-7-7-7-7-7-7-7-7-7-7-7-7-|
E|----------------------5-5-5-5-5-5-5-5-5-5-----------------------------------------|
Eu sei, acho que agora me sinto mais vivo


Guitarra 1
e|-------------------------------------------------------------------------||
B|-------------------------------------------------------------------------||
G|--17-17-17-17\14-14-14-14-14\13-13-13-13\11-11-11-11\9-9-9-9/11-11-11-11-||
D|--x-x-x-x-x--\-x--x--x--x--x\-x--x--x--x\x--x--x--x-\x-x-x-x/x--x--x--x--||
A|--16-16-16-16\12-12-12-12-12\11-11-11-11\9--9--9--9-\7-7-7-7/9--9--9--9--||
E|-------------------------------------------------------------------------||

Guitarra 2
e|----------------------------------------------------------------------------------||
B|----------------------------------------------------------------------------------||
G|----------------------------------------------------------------------------------||
D|--6-6-4-6-6-6-6-6-6-6-7-7-7-7-7-7-7-7-7-7-9-9-9-9-9-9-9-9-9-9-9-9-9-9-9-9-9-9-9-9-||
A|--4-4-4-4-4-4-4-4-4-4-7-7-7-7-7-7-7-7-7-7-7-7-7-7-7-7-7-7-7-7-7-7-7-7-7-7-7-7-7-7-||
E|----------------------5-5-5-5-5-5-5-5-5-5-----------------------------------------||
Talvez, sinto que hora de estarmos partindo daqui


Guitarra 1
e|-------------------------------------------------------------------||
B|-------------------------------------------------------------------||
G|-6-6-6-6-6-6-6-6-6-6-6-6-6-6-6-6-6-9-9-9-9-9-9-9-9-9-9-9-9-9-9-9-9-||
D|-x-x-x-x-x-x-x-x-x-x-x-x-x-x-x-x-x-x-x-x-x-x-x-x-x-x-x-x-x-x-x-x-x-||
A|-4-4-4-4-4-4-4-4-4-4-4-4-4-4-4-4-4-7-7-7-7-7-7-7-7-7-7-7-7-7-7-7-7-||
E|-------------------------------------------------------------------||

Guitarra 2
e|----------------------------------------------------------------------------------||
B|----------------------------------------------------------------------------------||
G|----------------------------------------------------------------------------------||
D|--6-6-4-6-6-6-6-6-6-6-7-7-7-7-7-7-7-7-7-7-9-9-9-9-9-9-9-9-9-9-9-9-9-9-9-9-9-9-9-9-||
A|--4-4-4-4-4-4-4-4-4-4-7-7-7-7-7-7-7-7-7-7-7-7-7-7-7-7-7-7-7-7-7-7-7-7-7-7-7-7-7-7-||
E|----------------------5-5-5-5-5-5-5-5-5-5-----------------------------------------||
Já não nos resta mais nada além de nós dois



Final
Guitarra 1
 C#-E-G                            
e|---------------------------------------------------------------||
B|---------------------------------------------------------------||
G|------------------------------------9-9--9-x-9-9--9-x-5-5--5-x-||
D|-6-6-x--6-6--6-x-6-6--6-x-6-6--4-x--9-9--9-x-9-9--9-x-5-5--5-x-|| 2x
A|-4-4-x--4-4--4-x-4-4--4-x-4-4--4-x--7-7--7-x-7-7--7-x-3-3--3-x-||
E|---------------------------------------------------------------||

Guitarra 2
 C#-A-E-G
e|---------------------------------------------------------------||
B|---------------------------------------------------------------||
G|------------------------------------9-9--9-x-9-9--9-x-5-5--5-x-||
D|-6-6-x--6-6--6-x-7-7--7-x-7-7--7-x--9-9--9-x-9-9--9-x-5-5--5-x-|| 2x
A|-4-4-x--4-4--4-x-7-7--7-x-7-7--7-x--7-7--7-x-7-7--7-x-3-3--3-x-||
E|-----------------5-5--5-x-5-5--5-------------------------------||

Guitarras 1 e 2 

e|-------||
B|-------||
G|---6~--||
D|---6~--||
A|---4~--||
E|-5-----||
00:00 / 00:00
Outros vídeos desta música
Repetir
Outros vídeos desta música
Composição de Rick Bonadio / Wally
Colaboração e revisão:
  • Alexandre Silva
7.899 exibições
    • ½ Tom
    • A
    • Bb
    • B
    • C
    • Db
    • D
    • Eb
    • E
    • F
    • F#
    • G
    • Ab
  • Adicionar à lista

    0 comentários

    Ver todos os comentários

    Conseguiu tocar?

    0 Tocaram 0 Ainda não

    Grave um vídeo tocando Além de Nós e nos envie!

    Entre para oCifra Club PRO

    Tenha acesso a benefícios exclusivos no App e no Site

    • Chega de anúncios

    • Prioridade de compra em lançamentos

    • Mais recursos no app do Afinador

    • Atendimento Prioritário

    • Descontos nos produtos Cifra Club

    • Ajude a produzir mais conteúdo

    00:00 / 00:00

    Cifra Club Pro

    Aproveite o Cifra Club com benefícios exclusivos e sem anúncios
    Cifra Club Pro
    Aproveite o Cifra Club com benefícios exclusivos e sem anúncios
    OK