Cifra Club

Conta Comigo

CPM 22

Cifra: Principal (violão e guitarra)
Tom: A
[Intro] A5

[Riff 1]

E|----------------------------------------------------------------|
B|----------------------------------------------------------------|
G|----------------------------------------------------------------|
D|---11--7--11--9--7--9--11--7--7---------------------------------|
A|---0---0--0---0--0--0--0---0--0---------------------------------|
E|----------------------------------------------------------------|

A5
Sempre com muita fé, suor e sacrifício
D5         B5                A5
O caminho, a verdade nos mantém
A5
Seguir com os pés no chão, alta fidelidade
   D5
Nossa dignidade
   B5                         A5
Manter nosso respeito é importante
       D5                 B5                          A5
Penso nisso toda tarde, todo dia, toda hora, todo instante
E5
Um pouco se perdeu
D5                              A5   ( D5  A5  D5  A5 )
Guardei o que brilhou daquele monte
E5
Cuidei pra não morrer
D5                        A5
Plantei cada semente no horizonte
 E
Meee ouve
D5
Eu quero levar você
     A5
Comigo

( A5 )

[Riff 1]

E|----------------------------------------------------------------|
B|----------------------------------------------------------------|
G|----------------------------------------------------------------|
D|---11--7--11--9--7--9--11--7--7---------------------------------|
A|---0---0--0---0--0--0--0---0--0---------------------------------|
E|----------------------------------------------------------------|

A5
Sabemos bem
A5
A vida não tá fácil
D5
Mas com sinceridade
    B5                        A5
Lembrar do que passou é empolgante
      D5
Me faz acreditar
B5                              A5
Temos que nos dar mais uma chance
E5
Um pouco se perdeu
D5                               A5 ( D5  A5  D5  A5 )
Guardei o que brilhou daquele monte
E5
Cuidei pra não morrer
D5                            A5
Plantei cada semente no horizonte
E
Me ouve
D5
Eu quero levar você (Levar você, levar você)
A5
Comigo

( A5 )

[Riff 1]

E|----------------------------------------------------------------|
B|----------------------------------------------------------------|
G|----------------------------------------------------------------|
D|---11--7--11--9--7--9--11--7--7---------------------------------|
A|---0---0--0---0--0--0--0---0--0---------------------------------|
E|----------------------------------------------------------------|

[Solo] F#5  D5  A5  E5 
       F#5  D5  A5  E5 
       F#5  D5  A5  E5 
       F#5  D5  E5  E5  A5

E|-----------------------------------------------4----------------|
B|--/10--9---5--5~-------5--5h7--5~-----5---5h7-----5---7---5--5h7|
G|-------------------/6--------------6----------------------------|
D|----------------------------------------------------------------|
A|----------------------------------------------------------------|
E|----------------------------------------------------------------|

E|----0--0----0--0--0-------------------------------4-------------|
B|----9--9h10-9--7--5-------5--5h7--5~-----5---5h7-----5--7-------|
G|-----------------------\6--------------6------------------------|
D|----------------------------------------------------------------|
A|----------------------------------------------------------------|
E|----------------------------------------------------------------|

E|----------------------------------------------------------------|
B|------------------------------------------2---2h3--2------------|
G|-------------------2-4--------------------------------2~-2-2-2--|
D|--/4-4-4--4--4-2-4--------/4--4--4--2---------------------------|
A|----------------------------------------------------------------|
E|----------------------------------------------------------------|

E|----------------------------------------------------------------|
B|----/10-9--------------------------------------10---------------|
G|----------9--9-9-9--------9-------11---9----------11------------|
D|-----------------------------11-------------11------------------|
A|----------------------12----------------------------------------|
E|----------------------------------------------------------------|

E|----------------12------------------0----0--0--0-0-0-0----------|
B|-----10------12b14r12--10-----------7/9--9--9--9-9-9-9/10-------|
G|--11----11-----------------11~~~~-------------------------------|
D|----------------------------------------------------------------|
A|----------------------------------------------------------------|
E|----------------------------------------------------------------|

E|0---0--0--0--0---0----0--0--0-0-0-0-----------------------------|
B|10--10-10-10-10--10/5-5--5--5-5-5-5--0-0-0--0-0-0---------------|
G|-------------------------------------4-4-4--4-4-4---------------|
D|----------------------------------------------------7\----------|
A|----------------------------------------------------7\----------|
E|----------------------------------------------------5\----------|
  
E5
Um pouco se perdeu
D5                             A5 (D5  A5  D5  A5)
Guardei o que brilhou daquele monte
E5
Cuidei pra não morrer
D5                            A5
Plantei cada semente no horizonte
E
Me ouve
D5
Eu quero levar você (levar você, levar você)
A5
Comigo
D5
E eu quero levar você (levar você, levar você)
A5
Comigo

( A5 )

[Riff 1]

E|----------------------------------------------------------------|
B|----------------------------------------------------------------|
G|----------------------------------------------------------------|
D|---11--7--11--9--7--9--11--7--7---------------------------------|
A|---0---0--0---0--0--0--0---0--0---------------------------------|
E|----------------------------------------------------------------|
 
A5
Eu quero levar você
A5
Eu quero levar você
A5
Eu quero levar você
A5
Eu quero levar você
exibições 145
Acordes para:
    Colaboração e revisão:
    • Matheus Avi

    0 comentários

    mostrar mais comentários

    Conseguiu tocar?

    1 tocaram 0 ainda não

    Grave um vídeo tocando Conta Comigo e mande pra gente!

    00:00 / 00:00
    outros vídeos desta música
    repetir qualidade Automático
    Outros vídeos desta música
    00:00 / 00:00
    Automático
    OK