Cifra Club

Especial Como Você

CPM 22

Cifra: Principal (violão e guitarra)
tom: Bb
INTRO (BASE) A#5 F5 A#5 D#5 G5 F5 G5 F5 (2 VEZES)
                 

INTRO SOLO:

E|----------13-13-13-13^15----------11-11-11-11^13----------|        --|        
B|-11-11-11---------------11-11-11-----------------11-11-11-|           |       
G|----------------------------------------------------------|           |
D|----------------------------------------------------------|           |
A|----------------------------------------------------------|           |
E|----------------------------------------------------------|           |
                                                                2 VEZES |
                                                                        |
E|-------------13-13-13-13^15----------------13-11-10-11----|           |
B|-------------------------------11-11-11-----------------11|           |
G|----------------------------------------------------------|           |
D|----------------------------------------------------------|           |
A|----------------------------------------------------------|           |
E|----------------------------------------------------------|         --|
  
A#5 F5
    
D#5
Será Você?

        A#5   F5
Que Vai ver o tempo passar

D#5
E as mudanças ao nosso redor

A#5     F5           D#5
Te conhecer, saber como é você, é você, é você

C5 D#5 A#5
         Há Muito tempo para ver

C5 D#5 A#5
         O que tiver que acontecer

C5 D#5 A#5
         Espero sempre ter alguém

C5 D#5 F5
         Especial como você

A#5  F5        D#5 G5  D#5 G5
Especial como você

F5
Especial como você

A#5 F5          D#5 G5  D#5 G5
Especial como você

F5
Especial como você

       A#5     F5     D#5
Uma pessoa pra sempre admirar

  A#5         F5       D#5
alguém que eu possa contar

       A#5     F5     D#5
Uma Pessoa pra sempre admirar

  A#5       F5       D#5
alguém pra sempre lembrar

C5 D#5 A#5
         Há Muito tempo para ver

C5 D#5 A#5
         O que tiver que acontecer

C5 D#5 A#5
         Espero sempre ter alguém

C5 D#5 F5
         Especial como você

A#5 F5          D#5 G5  D#5 G5
Especial como você

F5
Especial como você

A#5 F5          D#5 G5  D#5 G5
Especial como você

F5
Especial como você
 

E|-------1--|
B|-1-0-1----|
00:00 / 00:00
Outros vídeos desta música
Repetir
Outros vídeos desta música
Composição de Portoga
Colaboração e revisão:
162.497 exibições
    • ½ Tom
    • A
    • Bb
    • B
    • C
    • Db
    • D
    • Eb
    • E
    • F
    • F#
    • G
    • Ab
  • Adicionar à lista

    0 comentários

    Ver todos os comentários

    Conseguiu tocar?

    6 Tocaram 0 Ainda não

    Grave um vídeo tocando Especial Como Você e nos envie!

    Entre para oCifra Club PRO

    Tenha acesso a benefícios exclusivos no App e no Site

    • Chega de anúncios

    • Prioridade de compra em lançamentos

    • Mais recursos no app do Afinador

    • Atendimento Prioritário

    • Descontos nos produtos Cifra Club

    • Ajude a produzir mais conteúdo

    00:00 / 00:00

    Cifra Club Pro

    Aproveite o Cifra Club com benefícios exclusivos e sem anúncios
    Cifra Club Pro
    Aproveite o Cifra Club com benefícios exclusivos e sem anúncios
    OK