Cifra Club

Garota da TV

CPM 22

Cifra: Principal (violão e guitarra)
tom: A
Intro: A, E, F#, D

(riff 1) introdução (8 vezes)........verso 2 e refrão tb riff 1
          A              E                F#m               D
E||------------------------------------------------------------------||
B||------------------------------------------------------------------||
G||-----------------9-9-9-9-9-9-9---------------------7-7-7-7-7-7-7--||
D||--7-7-7-7-7-7----7-7-7-7-7-7-7----4-4-4-4-4-4-4----7-7-7-7-7-7-7--|| 
A||--7-7-7-7-7-7----7-7-7-7-7-7-7----4-4-4-4-4-4-4----5-5-5-5-5-5-5--||
E||--5-5-5-5-5-5---------------------2-2-2-2-2-2-2-------------------||


(solo 1)intro (8 vezes)
E||-------------||
B||-------------||
G||---6-7-9-7-6-||
D||-7-----------||
A||-------------||
E||-------------||


(riff 2) verso 1
        A             F#m              D
E||-------------------------------------------||
B||-------------------------------------------||
G||-------------------------------7-7-7-7-7-7-||        (2 VEZES)
D||-7-7-7-7-7-7----4-4-4-4-4-4----7-7-7-7-7-7-||
A||-7-7-7-7-7-7----4-4-4-4-4-4----5-5-5-5-5-5-||
E||-5-5-5-5-5-5----2-2-2-2-2-2----------------||


solinho 2
e||--------------||
B||----10-10-10~-||
G||-13-----------||
D||--------------||
A||--------------||
E||--------------||


(riff 3) final
 
        parte 1  (3 vezes)        parte 2
E||---------------------------|-------------||
B||---------------------------|-------------||
G||-------7--------7--------7-|---9-----7---||
D||-7-7-4-7--7-7-4-7--7-7-4-7-|-4-7-4-7-7---||
A||-7-7-4-5--7-7-4-5--7-7-4-5-|-4-7-4-7-5---||
E||-5-5-2----5-5-2----5-5-2---|-2---2-5-----||
________________________________________________________________________

intro: batera, riff 1 e solo 1 ....................1ª vez

A         F#m                D                          :      (verso 1)
DE TUDO AQUILO, EU NÃO TINHA NADA....RESPOSTA NÃO DADA  :
A     F#m          D                                    :       (riff 2)
FOI ASSIM QUE COMEÇOU....DIAS CINZENTOS                 :


A    E         F#m                        :
ONDE NADA ME FARIA                        :               (verso 2)
     D              A                     :
ESQUEÇER AQUELE DIA                       :                (riff 1)
      E             F#m                   :
A RESPOSTA NÃO ME IMPORTA MAIS            :
E                                         :
EU NÃO SOU UM PERDEDOR                    :


(PARADA)
A, E, F#m, D  (2 vezes)(uma batida em kda nota...na 2ª vez, o solinho 2 entra) 


A       E                  F#m            :
DIAS E MESES PENSANDO EM VOCÊ             :             (refrão)
      D              A                    :
PROCURANDO ENTENDER                       :             (riff1)
        E                  F#m            :
DIAS E MESES TENTANDO ENTENDER            :
          D                A              : (aqui nessa parte, o solo 1 tb é tocado)
O QUE EU SINTO POR VOCÊ                   :
             E                   F#m      :
TENTANDO ENTENDER, TENTANDO ENTENDER      :<-------------(2 vezes)
         D                 A              :
O QUE EU SINTO POR VOCÊ                   :




A, A, F#m, D :2X            :
                            :     (aqui só é tocado na 2ª vez)= final
F#m, F#m, E, F#m, A, D      :
GAROTA DA TV!               :

....:repete:....2ª vez

intro
verso 1
verso 2
parada
refrão - "tentando entender... ...o q eu sinto por vc" - 4 vezes
final: (riff 3)=parte 1(3 vezes).....(riff 3)=parte 2
00:00 / 00:00
Outros vídeos desta música
Repetir
Outros vídeos desta música
Composição de Wally
Colaboração e revisão:
98.694 exibições
    • ½ Tom
    • A
    • Bb
    • B
    • C
    • Db
    • D
    • Eb
    • E
    • F
    • F#
    • G
    • Ab
  • Adicionar à lista

    0 comentários

    Ver todos os comentários

    Conseguiu tocar?

    2 Tocaram 0 Ainda não

    Grave um vídeo tocando Garota da TV e nos envie!

    Entre para oCifra Club PRO

    Tenha acesso a benefícios exclusivos no App e no Site

    • Chega de anúncios

    • Prioridade de compra em lançamentos

    • Mais recursos no app do Afinador

    • Atendimento Prioritário

    • Descontos nos produtos Cifra Club

    • Ajude a produzir mais conteúdo

    00:00 / 00:00

    Cifra Club Pro

    Aproveite o Cifra Club com benefícios exclusivos e sem anúncios
    Cifra Club Pro
    Aproveite o Cifra Club com benefícios exclusivos e sem anúncios
    OK