Cifra Club

Park, park

CPM 22

Cifra: Principal (violão e guitarra)
tom: C
(Riff 1)

   C       D         F
   Hoje, sexta feira
   C      D      F
   Logo pela manhã
   C      D       F
   Já pensava em tudo
          C
   Na verdade
         D          F
   Eu lembrava de você

   Naquela praça   (Riff 1)

   C D F              C D F
   Parece quer os dias passaram
             C
   Rápido demais
       D         F
   E eu estou longe
   C    D       F
   Pra lhe contar
 
   A verdade  (Riff 1)

   C    D     F
   Naquele dia
           C
   Eu tirava
       D        F
   Alguns retratos
          C        D     F
   E a fumaça cobria sua cabeça
   C   D          F           (Riff 1) F
   Como uma nuvem de tristeza 
          (Riff 1) F         (Riff 2)  
   É verdade...      É verdade... 
  
   C      D       F
   Nós saímos pela rua
   C     D       F
   Com a mesma liberdade
    C     D       F
   Que poderíamos ter
    C     D           F       C  D      F
   Se não estivéssemos presos a nós mesmos
   C         D        F
   E isso tudo me leva a pensar
   C     D     F    C     D      F
   Não te contei, mas ontem eu te vi
    C     D      F
   Comprando ervas
           C     D      F 
   Com a mesma liberdade

   Num supermercado  (Riff 1)  F

         (Riff 1) F       (Riff 3)
   É verdade...     É verdade...

         (Riff 4) F  F
   É verdade...
   
  final (C - B : - F )
                                         
Riff 1                                     
  e|----------------------------------| 
  B|----------------------------------| 
  G|----------------------------------|   
  D|-5-5-5-5-5-5-5--------------------| 
  A|-3-2-3-2-3-2-3--------------------| 
  D|----------------------------------| 

Riff 2
  e|----------------------------------------------| 
  B|----------------------------------------------| 
  G|----------------------------------------------|   
  D|----------------------3b2----------3b2--------| 
  A|-3b2--3b2--3b2--3b2---------3b2----------3b2--| 
  D|----------------------------------------------| 

Riff 3
  e|----------------------------------------------| 
  B|----------------------------------------------| 
  G|----------------------------------------------|   
  D|----------------------3b2----------5b3b2b0----| 
  A|-3b2--3b2--3b2--3b2---------3b2---------------| 
  D|----------------------------------------------| 

Riff 4
  e|----------------------------------------------| 
  B|----------------------------------------------| 
  G|----------------------------------------------|   
  D|----------------------5b3b2b0--7b5b3b2--------|
  A|-3b2--3b2--3b2--3b2---------------------------| 
  D|----------------------------------------------| 
00:00 / 00:00
Outros vídeos desta música
Repetir
Outros vídeos desta música
Composição de Wally
Colaboração e revisão:
  • João Reinaldo
  • Samuel Giehl
20.876 exibições
    • ½ Tom
    • A
    • Bb
    • B
    • C
    • Db
    • D
    • Eb
    • E
    • F
    • F#
    • G
    • Ab
  • Adicionar à lista

    0 comentários

    Ver todos os comentários

    Conseguiu tocar?

    0 Tocaram 0 Ainda não

    Grave um vídeo tocando Park, park e nos envie!

    Entre para oCifra Club PRO

    Tenha acesso a benefícios exclusivos no App e no Site

    • Chega de anúncios

    • Prioridade de compra em lançamentos

    • Mais recursos no app do Afinador

    • Atendimento Prioritário

    • Descontos nos produtos Cifra Club

    • Ajude a produzir mais conteúdo

    00:00 / 00:00

    Cifra Club Pro

    Aproveite o Cifra Club com benefícios exclusivos e sem anúncios
    Cifra Club Pro
    Aproveite o Cifra Club com benefícios exclusivos e sem anúncios
    OK