Cifra Club

Quem Sou Eu

CPM 22

Cifra: Principal (violão e guitarra)
tom: A
(riff 1)
E|----------------------------------|
B|----------------------------------|
G|----------------------------------|
D|--9-9-9--9-9-9----9-9-9--9-9-9----|
A|--6-6-6--7-7-7----6-6-6--7-7-7----|
E|----------------------------------|

F#m7                 (riff 1)
Certas coisas sei que nunca vão mudar
F#m7                   (riff 1)
Se eu tivesse todas as respostas nao erraria mais
F#m7                (riff 1)
Andei pelos quatro cantos da cidade
F#m7                    G#m7
Mas sempre voltei pra cá

           Em7                      G#m7
Pro lugar onde me sinto mais seguro
                          F#m7      G#m7   F#m7
Lempre que na vida só estamos de passagem
G#m7          Em7
    Porque insistir,pedir para nós mesmos
G#m7    F#m7    Em7        F#m7
    O tempo é implacável.

Bm7  F#m7    G#m7
           Estou voltando pra sua casa,
            Em7                        Bm7
           Estou voltando só pra te dizer,
                     F#m7    G#m7  F#m7
           Quem sou eu,
         G#m7                           Em7
           Os problemas deixam a gente cada vez mais fortes.
(solo)

E|--------------------------------------------------------------------------------------|
B|--------------------------------------------------------------------------------------|
G|--------------------------------------------------------------------------------------|
D|--9...--11...---9...---13...---11...----9...---11...----9...----9...----9...----9...--|
A|--6...---9...---7...---11...---9...---6/7...---9...---6/7...--6/7...--6/7...--6/7...--|
E|--------------------------------------------------------------------------------------|

E|-------------------------------------------X-------|
B|-------------------------------------------X-------|
G|-------------------------------------------X-------|
D|--9...--11...--13...--11...---9...--11...--X--9----|
A|--6...---9...--11...--9...--6/7...--9...---X--7----|
E|-------------------------------------------X-------|

(riff 1)

F#m7                    (riff 1)
Porque será que nunca estamos satisfeitos?
F#m7                   (riff 1)
Qualquer atrito já é motivo pra querer mais.
F#m7                  (riff 1)
As pessoas não se respeitam como antigamente
F#m7                         G#m7
A vaidade em primeiro lugar,

                Em7                    G#m7
Quantos anos jogados fora em um segundo?
                        F#m7             G#m7  F#m7
Sinto falta de quando a vida era mais simples
G#m7    Em7
Estou aqui pra destruir tudo ao seu lado
G#m7  F#m7     Em7        F#m7
Já fomos longe demais.

Bm7 F#m7     G#m7
      Estou voltando pra sua casa,
             Em7                   Bm7
      Estou voltando só pra te dizer
               F#m7  G#m7  F#m7
      Quem sou eu

G#m7                  Em7
Nós dois juntos somos mil vezes mais fortes
(riff 3)

E|--------------------------------------------------------------------------------------------|
B|--------------------------------------------------------------------------------------------|
G|--------------------------------------------------------------------------------------------|
D|--4...--13...--11...--13--11---------------------------4...--13...--11...--13...--15...-----|
A|--2...--11...--9...---11--9------6...--4...--2...------2...--11...--9...---11...--13...-----|
E|---------------------------------4...--2...--0...-------------------------------------------|

AhhhhAHhhhhhhhAHhAhhhhAHhhhAhhhh

G#m7           F#m7   Em7
Nós dois juntos somos mil vezes mais fortes.
(riff 5)

E|-----------------------------------------------------------------------|
B|-----------------------------------------------------------------------|
G|-----------------------------------------------------------------------|
D|--9-9-9--9-9-9---9-9-9--9-9-9----------11...--13...--11...-9-----------|
A|--6-6-6--7-7-7---6-6-6--7-7-7----------9...---11...--9...--7-----------|
E|-----------------------------------------------------------------------|
00:00 / 00:00
Outros vídeos desta música
Repetir
Outros vídeos desta música
Composição de Badauí
Colaboração e revisão:
  • Marcelo Santos
3.576 exibições
    • ½ Tom
    • A
    • Bb
    • B
    • C
    • Db
    • D
    • Eb
    • E
    • F
    • F#
    • G
    • Ab
  • Adicionar à lista

    0 comentários

    Ver todos os comentários

    Conseguiu tocar?

    3 Tocaram 0 Ainda não

    Grave um vídeo tocando Quem Sou Eu e nos envie!

    Entre para oCifra Club PRO

    Tenha acesso a benefícios exclusivos no App e no Site

    • Chega de anúncios

    • Prioridade de compra em lançamentos

    • Mais recursos no app do Afinador

    • Atendimento Prioritário

    • Descontos nos produtos Cifra Club

    • Ajude a produzir mais conteúdo

    00:00 / 00:00

    Cifra Club Pro

    Aproveite o Cifra Club com benefícios exclusivos e sem anúncios
    Cifra Club Pro
    Aproveite o Cifra Club com benefícios exclusivos e sem anúncios
    OK