Cifra Club

Reflexões

CPM 22

Cifra: Principal (violão e guitarra)
tom: E
 ---Acordes--

   C#   B   A    C
E|--9---7---5----8-----|
B|-11---9---7---10-----|
G|-11---9---7---10-----|   
D|---------------------|
A|---------------------|
E|---------------------|

C#       B    C#      B       C#  
   quem pode mais, quem sabe mais
B       C#            B  
   não estou contra você
C#     B    C#    B       C#
   não vou falar sobre ideais
B      C#             B
   não vou julgar ninguem

B     A                      ( RIFF 1 ) 2x
sua alma está perdendo a cor
B      A                  ( RIFF 1 ) 2x
seus olhos refletem a dor
B     A
sem amor

(RIFF 1) os q estão com ->* tokar abafado  

    * * * * * * * *          
E|--7-7-7-7-7-7-7-7-7/8--5-7---|
B|--9-9-9-9-9-9-9-9-9/10-7-9---|
D|--9-9-9-9-9-9-9-9-9/10-7-9---|   2x
G|-----------------------------|
A|-----------------------------|
E|-----------------------------|


C#   B        C#    
   andar pra trás
B      C#
estaguinar
B      C#           B
   não ter pra onde ir
C#  B   C#
   observar
B        C#
falar demais
B        C#          B
   a inveja não tem fim

B     A                     (RIFF 1) 2x
sua alma está perdendo a cor
B     A                  (RIFF 1) 2x
seus olhos refletem a dor
B     A             
sem amor no coração

(RIFF 2) eh quando ele fala ''estupidez''

E|--x-x-x-x-7-x-x-x-x-7-x-x-7-|
B|--x-x-x-x-9-x-x-x-x-9-x-x-9-|
G|--x-x-x-x-9-x-x-x-x-9-x-x-9-|
D|----------------------------|
A|----------------------------|
E|----------------------------|

B       A                    B                  (Riff 2)
fique o mais longe possível com a sua doença (estupidez)
B            A             B     (Riff 2)
o ódio é o fruto da ignorância (estupidez)
B       A                    B                 (Riff 2)
fique o mais longe possível com a sua doença (estupidez)(2x)


E|--10-10-5-7~-10-10-5-7~-10-12-14----------------------------------
B|-------------------------------12-14------------------------------
G|-------------------------------------12~-12h14-12-14/15-14-12-9~--
D|------------------------------------------------------------------
A|------------------------------------------------------------------
E|------------------------------------------------------------------

E|------------------------------------------------------------------
B|------------------------------------------------------------------
G|-12h14-12-14/15-14-12-9~-12h14-12-14/15-14-12-9~-12h14-12-14/15--
D|------------------------------------------------------------------
A|------------------------------------------------------------------
E|------------------------------------------------------------------

E|------------------------------------------------------------------
B|------------------------------------------------------------------
G|-15-15-15-15-15-15-15-15-12h14-12-14/15-14-12-9~-12h14-12-14/15---
D|------------------------------------------------------------------
A|------------------------------------------------------------------
E|------------------------------------------------------------------

E|------------------------------------------------------------------
B|------------------------------------------------------------------
G|-14-12-9~-12h14-12-14/15-14-12-9~-12h14-12-14/15-15-15-15-15-15---
D|------------------------------------------------------------------
A|------------------------------------------------------------------
E|------------------------------------------------------------------

E|------------------------------------------------------------------|
B|------------------------------------------------------------------|
G|-15-15-15-1514-15-15-15-15-15-15-15-15-15-12h14-9-12h14-9~--------|
D|------------------------------------------------------------------|
A|------------------------------------------------------------------|
E|------------------------------------------------------------------|

no finalzinho toca 

Com a sua doença !

E|-10-10-5-7~-|
B|------------|
G|------------|
D|------------|
A|------------|
E|------------|

->Ae pessoal aki eh os Gêmeos Fabio & Flavio, dedicamos essa musica
  para o nosso amigo Batera Alex...valew por tudo velhu...CPM 22 na veia
00:00 / 00:00
Outros vídeos desta música
Repetir
Outros vídeos desta música
Composição de Badauí / Luciano
Colaboração e revisão:
  • Fabio Roma
22.814 exibições
    • ½ Tom
    • A
    • Bb
    • B
    • C
    • Db
    • D
    • Eb
    • E
    • F
    • F#
    • G
    • Ab
  • Adicionar à lista

    0 comentários

    Ver todos os comentários

    Conseguiu tocar?

    1 Tocaram 0 Ainda não

    Grave um vídeo tocando Reflexões e nos envie!

    Entre para oCifra Club PRO

    Tenha acesso a benefícios exclusivos no App e no Site

    • Chega de anúncios

    • Prioridade de compra em lançamentos

    • Mais recursos no app do Afinador

    • Atendimento Prioritário

    • Descontos nos produtos Cifra Club

    • Ajude a produzir mais conteúdo

    00:00 / 00:00

    Cifra Club Pro

    Aproveite o Cifra Club com benefícios exclusivos e sem anúncios
    Cifra Club Pro
    Aproveite o Cifra Club com benefícios exclusivos e sem anúncios
    OK