Cifra Club

Tempestade de Facas

CPM 22

Cifra: Principal (violão e guitarra)
tom: D
Base : Eb5 - F#5 - F5 - G#5

riff 1:
E |-0-0-0-0-0-0-0-0-0-0-0-0-0-0-0-0---5-5-5-5-5-5-5-5-5-5-5-5-5-5-5-5---|
B |-3-4-4-4-4-4-4-4-4-4-4-4-4-4-4-4---8-9-9-9-9-9-9-9-9-9-9-9-9-9-9-9---|
G |---------------------------------------------------------------------|
D |---------------------------------------------------------------------|    (2 vezes)
A |---------------------------------------------------------------------|
E |---------------------------------------------------------------------|

Intro = riff 1 + Base

    Eb5        F#5            F5      G#5
Seu sorriso amarelo perdeu a confiança
          Eb5     F#5           F5       G#5
Eu te imagino debaixo da tempestade de facas
        Eb5    F#5           F5         g#5
Sua conversa fiada que nunca leva há nada
         Eb5         F#5             F5       G#5
Quebrou todas as promessas caiu na própria cilada

Refrão:

Eb5  F#5  A#5  F#5             Eb5   F#5
              Eu não pedi pra você ficar
  A#5    F#5
   Pegue suas coisas e me

riff2:
E |--------------------------------------------|
B |-9-9-9---7-7-7-7-7---11-11-11---7-7-7-7-7---|

riff2
G#5     F#5     A#5       F#5           G#5    F#5
deixe em paz      Que foi você que resolveu mudar
A#5      F#5
  Mão volte nunca mais

G#5     F#5
            Não volte nunca mais
G#5     F#5
            Vê se me deixa em paz
(intro)

Eb5 - F#5 - F5 - G#5
Odeio a TV, à noite eu saio
Nas ruas de SP, mendigo entre os carros

Refrão

riff 3 + Base

riff3:
E |-------------------------------------11-11-11-11-11---|  (4 vezes)
B |-8-8-8---11-11-11-11-11---10-10-10--------------------|

Refrão:

Eb5  F#5  A#5  F#5             Eb5   F#5
              Eu não pedi pra você ficar
  A#5    F#5
   Pegue suas coisas e me
riff2
G#5     F#5     A#5       F#5           G#5    F#5
deixe em paz      Que foi você que resolveu mudar
A#5      F#5
  Mão volte nunca mais

G#5     F#5
            Não volte nunca mais
G#5     F#5
            Vê se me deixa em paz
G#5     F#5
            Pra Sempre
Eb5 Eb5
00:00 / 00:00
Outros vídeos desta música
Repetir
Outros vídeos desta música
Composição de Rodrigo Koala / Wally
Colaboração e revisão:
  • Tiago Teruya
  • Arthur Freitas
12.994 exibições
    • ½ Tom
    • A
    • Bb
    • B
    • C
    • Db
    • D
    • Eb
    • E
    • F
    • F#
    • G
    • Ab
  • Adicionar à lista

    0 comentários

    Ver todos os comentários

    Conseguiu tocar?

    2 Tocaram 0 Ainda não

    Grave um vídeo tocando Tempestade de Facas e nos envie!

    Entre para oCifra Club PRO

    Tenha acesso a benefícios exclusivos no App e no Site

    • Chega de anúncios

    • Prioridade de compra em lançamentos

    • Mais recursos no app do Afinador

    • Atendimento Prioritário

    • Descontos nos produtos Cifra Club

    • Ajude a produzir mais conteúdo

    00:00 / 00:00

    Cifra Club Pro

    Aproveite o Cifra Club com benefícios exclusivos e sem anúncios
    Cifra Club Pro
    Aproveite o Cifra Club com benefícios exclusivos e sem anúncios
    OK