Cifra Club

Generation Wild

Crashdiet

Cifra: Principal (violão e guitarra)
tom: Db
(afinação eb)

(intro / chorus)
E|-----------------------------------------------------------------|
b|o------------------------8-------------------------------8------o|
G|-7-99-9--7-55-5--9-77-7--7-------7-99-9--7-55-5--9-77-7--7---7---|
D|-7-99-9--7-55-5--9-77-7--5---7-5-7-99-9--7-55-5--9-77-7--5---7---|
a|o5-77-7--5-33-3--7-55-5------7-5-5-77-7--5-33-3--7-55-5------5--o|
E|-----------------------------5-3---------------------------------|

(intro solo)
E|----------------12------15-------17b(19)r17p15-17b17---15h17p15------------|
B|-12----------12-15b(17)-18b(20)---------------------------------17-15------|
G|----14-12-14---------------------------------------------------------16-14-|
D|---------------------------------------------------------------------------|
A|---------------------------------------------------------------------------|
E|---------------------------------------------------------------------------|

        long slow bend
E|------------------------|
B|------------------------|
G|------------------------|
D|-17-16b(17)-------------|
A|------------------------|
E|------------------------|

(verse)
     p.m--------|            p.m--------|              end 2nd time with this
E|-2-------------3-32-3p2--0-------------2-20-2p0-----|-----0--3---|
b|o3-------------3-33-3----1-------------1-11-1------o|-----1--3---|
G|-2-------------2-22-2----0-------------0-00-0-------|-----0--0---|
D|-0-0-0-0-0-0-0-0-00-0----2-------------2-22-2-------|-----2--x---|
a|o------------------------3-3-3-3-3-3-3-------------o|-----3--2---|
E|----------------------------------------------------|--------3---|

(play plain chords for the rest of the verse and end with a measure of
Ab before the chorus)

(solo riff)

   a      b  p.m--   p.m--   p.m--           c
E|------|-------------------------------------|------|
B|------|o-----------------------------------o|------|
G|------|-----------------------------2-------|--5---|
D|--2---|-2--------7--------2---------2----2--|--5---|
A|--2---|o2-444444-7-444444-2-444444--0----2-o|--3---|
E|--0---|-0-222222-5-222222-0-222222-------0--|------|

(solo)
                       b
E|-------------------|-------------------(17)r16p14-17b(19)-17p14------------|
B|-17-14-------------|-14b----15b(17)-17b-------------------------17-x 17b(19)|
G|-------16-14-------|-14b-------------------------------------------x-------|
D|-------------16-14-|-----16------------------------------------------------|
A|-------------------|-------------------------------------------------------|
E|-------------------|-------------------------------------------------------|

E|----------------------------------------------------------------------------|
b|xxxx-10-xx-9-9--xx-10-xx-12-xx-1010-xx-9-9-\------------14h17-17p14------14b|
g|xxxx-11-xx-1111-xx-11-xx-11-xx-1111-xx-1111\-------14h16-----------16p14-14b|
D|---------------------------------------------14h16--------------------------|
A|----------------------------------------------------------------------------|
E|----------------------------------------------------------------------------|
   c
E|-33---3-2--333---3--|
B|-33---3-3--333---3--|
G|-22-2-222--222-2-2-2|
D|----0--0-------0---0|
A|--------------------|
E|--------------------|

(bridge)
   p.m-------------------------------------------------------------|
E|---------------------------------|---------------------------------|
B|-3-----3-----3---3-----3-----3---|-1-----1-----1---1-----1-----1---|
G|-2-2-2-2-2-2-2-2-2-2-2-2-2-2-2-2-|-0-0-0-0-0-0-0-0-0-0-0-0-0-0-0-0-|
D|-0-0-0-0-0-0-0-0-0-0-0-0-0-0-0-0-|-2-2-2-2-2-2-2-2-2-2-2-2-2-2-2-2-|
A|---------------------------------|---------------------------------|
E|---------------------------------|---------------------------------|

   p.m----------------------------------------------------|
E|---------------------------------|-----------------------0--0--3-|
B|-3-----3-----3---3-----5-----5---|-1-----1-----1---1-----1--1--3-|
G|-2-2-2-2-2-2-2-2-2-2-2-4-4-4-4-4-|-0-0-0-0-0-0-0-0-0-0-0-0--0--0-|
D|-0-0-0-0-0-0-0-0-0-0-0-2-2-2-2-2-|-2-2-2-2-2-2-2-2-2-2-2-2--2--x-|
A|---------------------------------|-----------------------3--3--2-|
E|---------------------------------|-----------------------------3-|

E|-2-----|--0-----|------------------------------|
B|-3-----|--1-----|------------------------------|
G|-2-----|--0-----|------------------------------|
D|-0-----|--2-----|22222222-44444444-55555555-77-|
A|-0-----|--3-----|00000000-22222222-33333333-55-|
E|-------|--------|------------------------------|

(bridge - lead)
E|2----------------|3----3-----3---3-----3-----3--|
B|-----------------|-x-x---x-x---x---x-x---x-x--x-|
G|-----------------|-x-x---x-x---x---x-x---x-x--x-|
D|-----------------|------------------------------|
A|-----------------|------------------------------|
E|-----------------|------------------------------|

E|5----5-----5---5-----7-----7--|3----3-----3---3-----3-----3--|
B|-x-x---x-x---x---x-x---x-x--x-|-x-x---x-x---x---x-x---x-x--x-|
G|-x-x---x-x---x---x-x---x-x--x-|-x-x---x-x---x---x-x---x-x--x-|
D|------------------------------|------------------------------|
A|------------------------------|------------------------------|
E|------------------------------|------------------------------|

(outro)
E|------|---------|
B|------|---------|
G|-5----|---------|
D|-5----|-7--5--2-|
A|-3----|-7--5--2-|
E|------|-5--3--0-|
00:00 / 00:00
Outros vídeos desta música
Repetir
Outros vídeos desta música
Composição de Crashdïet
Colaboração e revisão:
  • Daniel
2.438 exibições
    • ½ Tom
    • A
    • Bb
    • B
    • C
    • Db
    • D
    • Eb
    • E
    • F
    • F#
    • G
    • Ab
  • Adicionar à lista

    0 comentários

    Ver todos os comentários

    Conseguiu tocar?

    2 Tocaram 0 Ainda não

    Grave um vídeo tocando Generation Wild e nos envie!

    Entre para oCifra Club PRO

    Tenha acesso a benefícios exclusivos no App e no Site

    • Chega de anúncios

    • Prioridade de compra em lançamentos

    • Mais recursos no app do Afinador

    • Atendimento Prioritário

    • Descontos nos produtos Cifra Club

    • Ajude a produzir mais conteúdo

    00:00 / 00:00

    Cifra Club Pro

    Aproveite o Cifra Club com benefícios exclusivos e sem anúncios
    Cifra Club Pro
    Aproveite o Cifra Club com benefícios exclusivos e sem anúncios
    OK