Cifra Club

Cats Squirrel Solo

Cream

Cifra: Principal (violão e guitarra)
tom: G
-----------------------------------12--------|--------------------------------|
--------------------------------12----15-17v-|-17-15-17-15-17-15-15b17r-------|
-----12-14-b15r14p12-14-12--b16--------------|--------------------------16----|
-/14-----------------------------------------|--------------------------------|
---------------------------------------------|--------------------------------|
---------------------------------------------|--------------------------------|

---------|-------12--------------------------------|--------------------------|
---------|----12----15p12----12--------------------|--------------------------|
-14-12---|-b16------------14----12h14--12----------|------12-14-b15r14p12-14--|
-------14|--------------------------------14----12v|--/14---------------------|
---------|-----------------------------------14----|--------------------------|
---------|-----------------------------------------|--------------------------|

------------------|---------------------------------|--------------------------|
------------------|---------------------------------|--------------------------|
-12----------12b-v|--7b-9-7h9-9---9-9-9-9-9-9p7-----|--7h9-9-------------------|
----14-13-14------|-----------------------------9-9-|--------97p5--7p5---------|
------------------|---------------------------------|-------------------7------|
------------------|---------------------------------|--------------------------|

-------------|------------------------|---------------------------------|-----|
-------------|--------------7---------|------------------------------8b-|-----|
-------------|--9b12--b11b11--b11b9r-7|--9p7-7h9-9-7h9p-9-7h9p-9-7h9----|-----|
-7p5-------5b|------------------------|---------------------------------|-----|
-----7p5-7---|------------------------|---------------------------------|-----|
-------------|------------------------|---------------------------------|-----|

------------------------------------------------------------------------------|
--10b12r10p8-10-8-------------------------------------------------------------|
------------------7-----------------------------------------------------------|
--------------------9/7p5-7p5------7-6-7-6----7-6-7-6-------------------------|
------------------------------7------------7----------7-----------------------|
------------------------------------------------------------------------------|

Compositor não encontrado.
693 exibições
    • ½ Tom
    • A
    • Bb
    • B
    • C
    • Db
    • D
    • Eb
    • E
    • F
    • F#
    • G
    • Ab
  • Adicionar à lista

    0 comentários

    Ver todos os comentários

    Conseguiu tocar?

    0 Tocaram 0 Ainda não

    Grave um vídeo tocando Cats Squirrel Solo e nos envie!

    00:00 / 00:00
    Outros vídeos desta música
    Repetir Qualidade Automático
    Outros vídeos desta música
    00:00 / 00:00
    Automático

    Cifra Club Pro

    Aproveite o Cifra Club com benefícios exclusivos e sem anúncios
    Cifra Club Pro
    Aproveite o Cifra Club com benefícios exclusivos e sem anúncios
    OK