Cifra Club

Spoonful

Cream

Cifra: Principal (violão e guitarra)
tom: E

And Everyhting, in my opinion is pretty much right, there might be a few mistackes but
I don't think that there are. I tabbed this because I haven't seen anybody tab it before
favorite band! No, I did not copy this from a book.

Bend The 8th fret note up with your first finger only a little bit to give it some
flavor. Let all of the Open string notes ring when playing the lead break.
--------------------------------------------------------------------------------------|
------8~---------------------------8-------8------8-----------------------------------|
---------------9---------7---9--------9------9---------9-----7---9--------------------|
--------------------------------------------------------------------------------------|
--------------------------------------------------------------------------------------|
--------------------------------------------------------------------------------------|
                                        let this chord ring
--------------------------------------------------------------------------------------|
---8--------8-------8------------------------------8----------------------------------|
------9--------9-------9---------------------------9----------------------------------|
-------------------------------7h9-----------------9----------------------------------|
-------------------------------------7-------------7----------------------------------|
--------------------------------------------------------------------------------------|

--------------------------------------------------------------------------------------|
--------------------------------------------------------------------------------------|
--9b---9---------------7h9------------------------------------------------------------|
-------------------7h9----------------------2-2-2-0---------------------2-------------|
-----------------------------7------------------------2-1-0---------------------------|
--------------------------------------------------------------3b-0-3b-------0-3b------|

--------------------------------------------------------------------------------------|
----8------------------------------------8--------------------------------------------|
-------9----------7h9-7---------------------9------------7h9-7------------------------|
--------------7h9---------9/7--5---------------------7h9---------9/7--5---------------|
-----------------------------------7-------------------------------------7------------|
--------------------------------------------------------------------------------------|

--------------------------------------------------------------------------------------|
-----------8-------------8---8---8--------------8-----8----8--------------------------|
---------------9-----------9---9-----9-----7h9-----9----9------9----------------------|
-------------------7h9-----------------------------------------------7h9--------------|
--------------------------------------------------------------------------------------|
--------------------------------------------------------------------------------------|

--------------------------------------------------------------------------------------|
------8-----8----8----------------8--------8------8-----------------------------------|
---------9----9-------9---------------9~-----9~---------9~----------------------------|
-----------------------------7h9------------------------------------------------------|
--------------------------------------------------------------------------------------|
--------------------------------------------------------------------------------------|

--------------------------------------------------------------------------------------|
-------15b~~~~~~--------------------10b(12)-8-----------------------------------------|
--------------------------7h9-------------------------7----7h9-7----------------------|
-------------------------------------------------7h9-----9----------------------------|
-------------------------------7----------------------------------9---7/5-------------|
--------------------------------------------------------------------------------------|

               this riff is like a slow walkdown, not a fast paced lick.
--------------------------------------------------------------------------------------|
---------------------------------------------------------8----------------------------|
-----------------------------------------------------------9---------7--9--7----------|
------------------------0-2-0---------------2--------------------7h9------------------|
----7--5---------------------------2-1-0----------------------------------------------|
-----------------------------------------3b-------------------------------------------|

--------------------------------------------------------------------------------------|
-----------------------8--------------------------------8-----------------------------|
--------------------------9--------7h9-7-------------------9------7h9-7---------------|
---9/7--5----------------------7h9-----------9/7--5------------7h9-------9/7--5-------|
----------7-----------------------------------------7----------------------------7----|
--------------------------------------------------------------------------------------|

Spoooooooooooooooooonful!
--------------------------------------------------------------------------------------|
----8-----8----8---------------8-----8----8--------------8------8----8----------------|
------9~----9~-------9~---7H9-----9~----9~------9~--7H9------9~----9~--------9~-------|
--------------------------------------------------------------------------------------|
--------------------------------------------------------------------------------------|
--------------------------------------------------------------------------------------|

--------------------------------------------------------------------------------------|
--------------------------------------------------------------------------------------|
-------------7H9--7--------------------------------1----------------------------------|
-----7---9------------9/7--5-----------5-----------2----------------------------------|
-----------------------------7----5-7-----7--------2----------------------------------|
---------------------------------------------------0----------------------------------|

The Woman Tone Yeah!  Lead Break
--------------------------------------------------------------------------------------|
----12b(14)~~~~~~~~~~~~~~--12b(14)-12--10------10----------------14B------------------|
--------------------------------------------13----12--------12---14B------14p12-------|
---------------------------------------------------------14------------14-------------|
--------------------------------------------------------------------------------------|
--------------------------------------------------------------------------------------|

--------------------------------------------------------------------------------------|
------------12b(15)--12--10--8--------------------------------------------------------|
--------------------------------9--7--9---------7h9p7h9p7h9p7h9p7h9p7h9p7h9p7h9p7h9p--|
---------------------------------------------7h9--------------------------------------|
--14----------------------------------------------------------------------------------|
--------------------------------------------------------------------------------------|

--------------------------------------------------------------------------------------|
------------------------------------------------12------------------------------------|
-7h9p7h9p7h9p7h9p--7-7-5---------1--------------14b--14--12-----------1---------------|
--------------------------9------2--------------------------14--------2---------------|
---------------------------------2------------------------------------2---------------|
-------------------------------0-----------------------------------0------------------|
Here the best part, in my opinion.
---------12--------------------------------12--------------------------------12---------|
-------12-----15--12--15b(17)------------------15p12-----12----------------12-----15p12-|
----14b-----------------------------------------------14---14p12-----12-14b-------------|
------------------------------------------------------------------14--------------------|
----------------------------------------------------------------------------------------|
----------------------------------------------------------------------------------------|

--------------------------------------------------------------------------------------|
-----------------12-------------------------------------------------------------------|
--------------14-----14p12----12h14p12~~~~~~~~~~~~~~~~~-----14b--14--12--14p12--------|
---------------------------14-------------------------------------------------14------|
--------------------------------------------------------------------------------------|
--------------------------------------------------------------------------------------|

-----------------------------------------------------------------------------------------|
----------------------------------------------------------------------12-----------------|
------------14b--14--12---14p12-------14b---14---12--14p12------12h14----14p12-----------|
--------------------------------14------------------------14--------------------14p12h14-|
-----------------------------------------------------------------------------------------|
-----------------------------------------------------------------------------------------|

----------------------------------------------------------------------------------------|
----------------------------------------------------------------------------------------|
----------------1----------------------------------------------------14b-14-12--14p12---|
----------------2--------------12----14--12------------------------------------------14-|
----------------2---------12h14---14----------14/12--10---------------------------------|
-------------0---------------------------------------------0----------------------------|

--------------------------------------------------------------------------------------|
--------------------------------------------------------------------------------------|
----------------12h14p12----14b--14-12--14p12-------------------10b10b10b10b10b10b10b-|
----------------------------------------------14p12h14--------------------------------|
--------------------------------------------------------------------------------------|
------------------------------------------------------------0-------------------------|

--------------------------------------------------------------------------------------|
--------------------------------------------------------------------------------------|
-------------------10b(12)p9---9-7-9------10b10b10b10bp9-9-7-9------------------------|
--------------------------------------------------------------------------12----------|
--------------------------------------------------------------------12h14------14/12--|
--------------0-------------------------------------------------0---------------------|

---------------------------------------------------------------------------------------|
---------------------------------------------------------------------------------------|
------------------------------------------------12--14br14-12------------12--14br14-12-|
---------------------------------------------14----------------14p12h14----------------|
-------------11--12p11-12p11-----------------------------------------------------------|
-----------------------------12----0---------------------------------------------------|

----------------------------------------------------------------------------------------|
----------------------------------------------------------------------------------------|
-----------------------12----------------------------------12--14br14-12-------------12-|
--------------14p12h14----14---------------------------14------------------14p12h14-----|
------------------------------14-13-12-12p10-12-10--------------------------------------|
----------------------------------------------------------------------------------------|

--------------------------------------------------------------------------------------|
---------------------------------------------------------------------7----------------|
------------------------------------------------------------------9-------------------|
------------14-12----------------------------------------------9----------------------|
-------------------14-13-12--10-------------------------------------------------------|
---------------------------------12--0------------------------------------------------|
After the solo it just goes back to the normal song. You will probabley be able to
figure out the rest becuase it is just like the beginning and the verse. Thats it, I
hope you like it!


B=Bend
R=release
p=Pulloff
h=hamer on
/=slide
Composição de Willie Dixon
4.200 exibições
    • ½ Tom
    • A
    • Bb
    • B
    • C
    • Db
    • D
    • Eb
    • E
    • F
    • F#
    • G
    • Ab
  • Adicionar à lista

    0 comentários

    Ver todos os comentários
    00:00 / 00:00
    Outros vídeos desta música
    Repetir Qualidade Automático
    Outros vídeos desta música
    00:00 / 00:00
    Automático

    Cifra Club Pro

    Aproveite o Cifra Club com benefícios exclusivos e sem anúncios
    Cifra Club Pro
    Aproveite o Cifra Club com benefícios exclusivos e sem anúncios
    OK