Cifra Club

Aprenda

One Last Breath

Creed

Cifra: Principal (violão e guitarra)
tom: D
[Intro]

[Dedilhado Intro e Primeira Parte]

Parte 1 de 8

E|-2---5---0h2---------------------------|
B|-------------3-------------------------|
G|---------------0-----------------------|
D|-0-0---0-------------------------------|
A|---------------------------------------|
E|---------------------------------------|

Pate 2 de 8

E|---------------------------------------|
B|---2-3-3h5---5p3p2h3-------------------|
G|---------------------------------------|
D|---------------------------------------|
A|-0---------0---------0-----------------|
E|---------------------------------------|

Parte 3 de 8

   Bm
E|---------------------------------------|
B|-----3---2h3---------------------------|
G|-4-----------4-------------------------|
D|---------------4-----------------------|
A|-2-2---2-------------------------------|
E|---------------------------------------|

Parte 4 de 8

   G
E|-------------3-2-----------------------|
B|---------3-----------------------------|
G|-----0-----2---------------------------|
D|---0---0-------------------------------|
A|---------------------------------------|
E|-3-------------------------------------|

Parte 5 de 8

E|-2---3---2-0h2p0----------------------|
B|-----------------3--------------------|
G|--------------------------------------|
D|-0-0---0------------------------------|
A|-------------------4------------------|
E|--------------------------------------|

Parte 6 de 8

   A
E|--------------------------------------|
B|-------2-2h3p2-0----------------------|
G|-----2---------0---0------------------|
D|---2-------------4--------------------|
A|-0------------------------------------|
E|--------------------------------------|

Parte 7 de 8

   B9
E|---------2----------------------------|
B|-------2---2--------------------------|
G|-----4-------4------------------------|
D|---4-----------0----------------------|
A|-2------------------------------------|
E|--------------------------------------|

Parte 8 de 8

   G
E|-----------3--------------------------|
B|---------3---3------------------------|
G|-------0-------0----------------------|
D|-----0-----------0--------------------|
A|--------------------------------------|
E|-3------------------------------------|

[Primeira Parte]


Please come now, I think I'm falling
I'm holding on to all I think is safe
It seems I've found the road to nowhere
And I'm trying to escape
I yelled back when I heard thunder
But I'm down to one last breath
And with it let me say
Let me say

[Refrão]

D              F#7(11)
   Hold me now
     Bm                        G
I'm six feet from the edge and I'm thinking
D                 F#7(11)
   Maybe six feet
       Bm     G
Ain't so far down

[Primeira Parte]

(repete dedilhado)

I'm looking down now that it's over
Reflecting on all of my mistakes
I thought I found the road to somewhere
Somewhere in HIS grace
I cried out heaven save me
But I'm down to one last breath
And with it let me say
Let me say

[Refrão]

D5/A            F#5
     Hold me now
     B5                        G5
I'm six feet from the edge and I'm thinking
D5/A                F#5
     Maybe six feet
       B5     G5  B5  G5  
Ain't so far down
     B5     G5
I'm so far down

[Segunda Parte]

[Passagem]

E|-----------------------|
B|-----------------------|
G|--11---9---------------|
D|-----------------------|
A|--9----7---------------|
E|-----------------------|

          G  G9  D
Sad eyes follow me
               A             Bm                 G
But I still believe there's something left for me
                 G   G9   D
So please come stay with me
                  A             
'Cause I still believe 
         Bm                 G
There's something left for you and me

For you and me
For you and me

[Refrão]

D5/A            F#5
     Hold me now
     B5                        G5
I'm six feet from the edge and I'm thinking
D5/A                F#5
     Maybe six feet
       B5     G5  B5  G5  
Ain't so far down
     B5     G5
I'm so far down

[Final]

Parte 1 de 4

E|-2---5---0h2---------------------------|
B|-------------3-------------------------|
G|---------------0-----------------------|
D|-0-0---0-------------------------------|
A|---------------------------------------|
E|---------------------------------------|

Pate 2 de 4

E|---------------------------------------|
B|---2-3-3h5---5p3p2h3-------------------|
G|---------------------------------------|
D|---------------------------------------|
A|-0---------0---------0-----------------|
E|---------------------------------------|

Parte 3 de 4

   Bm
E|---------------------------------------|
B|-----3---2h3---------------------------|
G|-4-----------4-------------------------|
D|---------------4-----------------------|
A|-2-2---2-------------------------------|
E|---------------------------------------|

Parte 4 de 4

   G
E|-----------3--------------------------|
B|---------3---3------------------------|
G|-------0-------0----------------------|
D|-----0-----------0--------------------|
A|--------------------------------------|
E|-3------------------------------------|

Please come now, I think I'm falling
I'm holding on to all I think is safe
Composição de Günter Schulz / Mark Tremonti / Scott Stapp
Colaboração e revisão:
1.491.638 exibições
  • Simplificar cifra
    • ½ Tom
    • A
    • Bb
    • B
    • C
    • Db
    • D
    • Eb
    • E
    • F
    • F#
    • G
    • Ab
  • Adicionar à lista

    0 comentários

    Ver todos os comentários

    Conseguiu tocar?

    119 Tocaram 10 Ainda não

    Grave um vídeo tocando One Last Breath e nos envie!

    00:00 / 00:00
    Outros vídeos desta música
    Repetir Qualidade Automático
    Outros vídeos desta música
    00:00 / 00:00
    Automático
    Capítulos
    • Início
    • Tocando a introdução
    • Ensinando dedilhado da introdução (parte 1)
    • Ensinando dedilhado da introdução (parte 2)
    • Ensinando dedilhado da introdução (parte 3)
    • Ensinando dedilhado da introdução (parte 4)
    • Ensinando dedilhado da introdução (parte 5)
    • Ensinando dedilhado da introdução (parte 6)
    • Ensinando dedilhado da introdução (parte 7)
    • Tocando o dedilhado da introdução devagar
    • Acordes e ritmo da primeira parte
    • Tocando a primeira parte
    • Acordes do refrão
    • Tocando o refrão
    • Ensinando o ritmo do refrão
    • Acordes do refrão power chords
    • Tocando o refrão power chords
    • Ensinando o ritmo do refrão power chords
    • Acordes da segunda parte
    • Tocando a segunda parte
    • Ritmo e dicas da segunda parte
    • Tocando última parte
    • Ensinando o dedilhado da última parte
    • Encerramento
    • Extras

    Cifra Club Pro

    Aproveite o Cifra Club com benefícios exclusivos e sem anúncios
    Cifra Club Pro
    Aproveite o Cifra Club com benefícios exclusivos e sem anúncios
    OK