Cifra Club

Sister

Creed

Cifra: Principal (violão e guitarra)
tom: G
Intro:
E|----------------------------------------------|
B|----------------------------------------------|
G|-11-11-12-12-14-14-14-14-11/12-12\11-11-12\11-|   (2x)
D|----------------------------------------------|
A|-9--9--10-10-12-12-12-12-9-/10-10\9--9--10\9--|
D|----------------------------------------------|

E|-10-10-10-12-12-12-12-12-13-13-13-15-15-15-15-15-|
B|-10-10-10-12-12-12-12-12-13-13-13-15-15-15-15-15-|
G|-7--7--7--9--9--9--9--9--10-10-10-12-12-12-12-12-|
D|-------------------------------------------------|
A|-------------------------------------------------|
D|-------------------------------------------------|

E|-12/13-10-12/13-10-10-|-12/13-10-12/13-10-10-|
B|-12/13-10-12/13-10-10-|-12/13-10-12/13-10-10-|
G|-9-/10-7--9-/10-7--7--|-9-/10-7--9-/10-7--7--|
D|----------------------|----------------------|
A|----------------------|----------------------|
D|----------------------|----------------------|

E|-12/13-15-12/13-15-15-|-12/13-10-12/13-10-10-|
B|-12/13-15-12/13-15-15-|-12/13-10-12/13-10-10-|
G|-9-/10-12-9-/10-12-12-|-9-/10-7--9-/10-7--7--|
D|----------------------|----------------------|
A|----------------------|----------------------|
D|----------------------|----------------------|

E|-------------|
B|-7-7-7-7-7-7-|
G|-7-7-7-7-7-7-|
D|-------------|
A|-------------|
D|-------------|

Riff:
E|--------------------------------------|
B|--------------------------------------|
G|--------------------------------------|
D|-------7----------------------------5-|
A|---7h9------7h9\5----7h9\5----7h9\5---|
D|-0--------0--------0--------0---------|

Verso:
E|--------------------------------------------|
B|--------------------------------------------|
G|--------------------------------------------|
D|-------7----------------------------------5-|
A|---7h9--------7h9\5------7h9\5------7h9\5---|
D|-0--------0-0--------0-0--------0-0---------|
   .        ...        ...        ...

Pré-Refrão:
E|---------------------------------------------|
B|---------------------------------------------|
G|---------------------------------11/12-11/12-|   (3x)
D|-0-0-10-9-0-0-9-8-0-0-8-7-X-X--X-------------|
A|-0-0-10-9-0-0-9-8-0-0-8-7-X-X--X-9-/10-9-/10-|
D|-0-0-10-9-0-0-9-8-0-0-8-7-X-X--X-------------|
   ........................
E|-------------------------------------------|
B|-------------------------------------------|
G|--------------------------7/9---------9/11-|
D|-0-0-10-9-0-0-9-8-0-0-8-7-----X-X-X-X------|
A|-0-0-10-9-0-0-9-8-0-0-8-7-5/7-X-X-X-X-7/9--|
D|-0-0-10-9-0-0-9-8-0-0-8-7-----X-X-X-X------|
   ........................
E|---------------------------------------------|
B|---------------------------------------------|
G|--------------------------9/11---------11/12-|
D|-0-0-10-9-0-0-9-8-0-0-8-7------X-X-X-X-------|
A|-0-0-10-9-0-0-9-8-0-0-8-7-7/9--X-X-X-X-9-/10-|
D|-0-0-10-9-0-0-9-8-0-0-8-7------X-X-X-X-------|

E|-------------------------------------------|
B|-------------------------------------------|
G|--------------------------7/9---------9/11-|
D|-0-0-10-9-0-0-9-8-0-0-8-7-----X-X-X-X------|
A|-0-0-10-9-0-0-9-8-0-0-8-7-5/7-X-X-X-X-7/9--|
D|-0-0-10-9-0-0-9-8-0-0-8-7-----X-X-X-X------|

E|---------------------------------------------|
B|---------------------------------------------|
G|--------------------------9/11---------11/12-|
D|-0-0-10-9-0-0-9-8-0-0-8-7------X-X-X-X-------|
A|-0-0-10-9-0-0-9-8-0-0-8-7-7/9--X-X-X-X-9-/10-|
D|-0-0-10-9-0-0-9-8-0-0-8-7------X-X-X-X-------|

E|-------------------------------------------|
B|-------------------------------------------|
G|--------------------------7/9---------9/11-|
D|-0-0-10-9-0-0-9-8-0-0-8-7-----X-X-X-X------|
A|-0-0-10-9-0-0-9-8-0-0-8-7-5/7-X-X-X-X-7/9--|
D|-0-0-10-9-0-0-9-8-0-0-8-7-----X-X-X-X------|

Refrão:
E|----------------------|
B|-3--------------------|
G|-2----4--2------------|
D|-0----4--2--5----2----|
A|-0----2--0--5----2----|
D|-0----------5----2----|

Ponte:
(guitarra 1)
E|----------|
B|----------|
G|----------|
D|-0--------|
A|-0--------|
D|-0--------|
(guitarra 2)                       
E|----------------------------------------------|
B|----------------------------------------------|
G|-11-11-12-12-14-14-14-14-11/12-12\11-11-12\11-|   (2x)
D|----------------------------------------------|
A|-9--9--10-10-12-12-12-12-9-/10-10\9--9--10\9--|
D|----------------------------------------------|

(Verso 2)

(Pré-Refrão 2)

(Refrão 2)

Interlúdio:
E|-------------------------------------------|
B|-------------------------------------------|
G|--------------------------7/9---------9/11-|
D|-0-0-10-9-0-0-9-8-0-0-8-7-----X-X-X-X------|
A|-0-0-10-9-0-0-9-8-0-0-8-7-5/7-X-X-X-X-7/9--|
D|-0-0-10-9-0-0-9-8-0-0-8-7-----X-X-X-X------|

E|---------------------------------------------|
B|---------------------------------------------|
G|--------------------------9/11---------11/12-|
D|-0-0-10-9-0-0-9-8-0-0-8-7------X-X-X-X-------|
A|-0-0-10-9-0-0-9-8-0-0-8-7-7/9--X-X-X-X-9-/10-|
D|-0-0-10-9-0-0-9-8-0-0-8-7------X-X-X-X-------|

E|-------------------------------------------|
B|-------------------------------------------|
G|--------------------------7/9---------9/11-|
D|-0-0-10-9-0-0-9-8-0-0-8-7-----X-X-X-X------|
A|-0-0-10-9-0-0-9-8-0-0-8-7-5/7-X-X-X-X-7/9--|
D|-0-0-10-9-0-0-9-8-0-0-8-7-----X-X-X-X------|

E|---------------------------------------------|
B|---------------------------------------------|
G|--------------------------9/11---------11/12-|
D|-0-0-10-9-0-0-9-8-0-0-8-7------X-X-X-X-------|
A|-0-0-10-9-0-0-9-8-0-0-8-7-7/9--X-X-X-X-9-/10-|
D|-0-0-10-9-0-0-9-8-0-0-8-7------X-X-X-X-------|

E|-------------------------------------------|
B|-------------------------------------------|
G|--------------------------7/9---------9/11-|
D|-0-0-10-9-0-0-9-8-0-0-8-7-----X-X-X-X------|
A|-0-0-10-9-0-0-9-8-0-0-8-7-5/7-X-X-X-X-7/9--|
D|-0-0-10-9-0-0-9-8-0-0-8-7-----X-X-X-X------|

E|-------------------------------------------|
B|-------------------------------------------|
G|--------------------------9/11-11-11-11-11-|
D|-0-0-10-9-0-0-9-8-0-0-8-7------------------|
A|-0-0-10-9-0-0-9-8-0-0-8-7-7/9--9--9--9--9--|
D|-0-0-10-9-0-0-9-8-0-0-8-7------------------|
00:00 / 00:00
Outros vídeos desta música
Repetir
Outros vídeos desta música
Composição de Günter Schulz / Scott Stapp / Stapp / Tremonti
Colaboração e revisão:
  • Jefferson Sousa
1.152 exibições
    • ½ Tom
    • A
    • Bb
    • B
    • C
    • Db
    • D
    • Eb
    • E
    • F
    • F#
    • G
    • Ab
  • Adicionar à lista

    0 comentários

    Ver todos os comentários

    Conseguiu tocar?

    0 Tocaram 0 Ainda não

    Grave um vídeo tocando Sister e nos envie!

    Entre para oCifra Club PRO

    Tenha acesso a benefícios exclusivos no App e no Site

    • Chega de anúncios

    • Prioridade de compra em lançamentos

    • Mais recursos no app do Afinador

    • Atendimento Prioritário

    • Descontos nos produtos Cifra Club

    • Ajude a produzir mais conteúdo

    00:00 / 00:00

    Cifra Club Pro

    Aproveite o Cifra Club com benefícios exclusivos e sem anúncios
    Cifra Club Pro
    Aproveite o Cifra Club com benefícios exclusivos e sem anúncios
    OK