Cifra Club

Aprenda

Bogotá

Criolo

Tab de baixo: Principal
Já pensou em usar uma coleção de roupas do Cifra Club? Responda as perguntas abaixo e nos ajude nessa missão! →
Intro + Primeiros Versos (00:07)
G|----------------------------------------------------------------| 
D|------------------10-10----8-8----------------------------------|
A|-----6-5-----6-10-------10--------------------------------------|
E|-6-8-----6-8----------------------------------------------------|

(01:18)
G|----------------------------------------------------------------| 1x
D|----------------------------------------------------------------|
A|--------------------11-10---------------------------------------|
E|-8-10-11-10-8-10-11-------11-10-8-10-11-------------------------|

Se você quer... (01:21)
G|----------------------------------------------------------------| 5x
D|---10-----------------------------------------------------------|
A|-8----------6-6-5-----------------------------------------------|
E|------8-8-8-------6---------------------------------------------|

És qualité... (01:41)
G|----------------------------------------------------------------| 1x
D|---10-----------------------------------------------------------|
A|-8-----------6-6-5---------6-6-8---------6-6-5------------------|
E|-------8-8-8-------6-8-8-8-------6-8-8-8-------6----------------|

(01:49)
G|----------------------------------------------------------------| 1x
D|---------10-10----8-8-------------------------------------------|
A|---6--10-------10-----------------------------------------------|
E|-8--------------------------------------------------------------|

(01:52)
G|----------------------------------------------------------------| 
D|------------------10-10----8-8----------------------------------|
A|-----6-5-----6-10-------10--------------------------------------|
E|-6-8-----6-8----------------------------------------------------|

(02:27)
G|----------------------------------------------------------------| 1x
D|----------------------------------------------------------------|
A|--------------------11-10---------------------------------------|
E|-8-10-11-10-8-10-11-------11-10-8-10-11-------------------------|

Desde pequeno... (02:30)
G|----------------------------------------------------------------| 5x
D|---10-----------------------------------------------------------|
A|-8----------6-6-5-----------------------------------------------|
E|------8-8-8-------6---------------------------------------------|

És qualité... (02:50)
G|----------------------------------------------------------------| 1x
D|---10-----------------------------------------------------------|
A|-8-----------6-6-5---------6-6-8---------6-6-5------------------|
E|-------8-8-8-------6-8-8-8-------6-8-8-8-------6----------------|

Vamos embora... (02:58)
G|----------------------------------------------------------------| 1x
D|---------10-10----8-8-------------------------------------------|
A|---6--10-------10-----------------------------------------------|
E|-8--------------------------------------------------------------|

(03:01)
G|----------------------------------------------------------------| 
D|------------------10-10----8-8----------------------------------|
A|-----6-5-----6-10-------10--------------------------------------|
E|-6-8-----6-8----------------------------------------------------|
Compositor não encontrado.
Colaboração e revisão:
  • Walter Brow
788 exibições

0 comentários

Ver todos os comentários

Conseguiu tocar?

1 Tocaram 0 Ainda não

Grave um vídeo tocando Bogotá e nos envie!

00:00 / 00:00
Outros vídeos desta música
Repetir Qualidade Automático
Outros vídeos desta música
00:00 / 00:00
Automático

Cifra Club Pro

Aproveite o Cifra Club com benefícios exclusivos e sem anúncios
Cifra Club Pro
Aproveite o Cifra Club com benefícios exclusivos e sem anúncios
OK