Cifra Club

Aprenda

Duas de Cinco

Criolo

Cifra: Completa (violão e guitarra)
Já pensou em usar uma coleção de roupas do Cifra Club? Responda as perguntas abaixo e nos ajude nessa missão! →
tom: D
Compro uma pistola do vapor...                          Faço uma mandiga pro terror... E vou...
E|------------------------------------0-----|       E|-------0-------0---------0|----------0---------0-----------|--------------|
B|------0-------0----0-------0------0---0---|       B|-----0--------0--------0--|--------0---------0-------------|--------------|
G|----0------0-----0------0-------0------0--| 2x    G|---0--------0--------0----|------0---------0---------------|--------------|
D|-5------4------2-----0--------------------|       D|--------------------------|--------------------------------|--------------| 
A|-----------------------------4-----------4|       A|-3------3-4------4-5------|-5-4--------4-3--------3-4--2---|--------------|
E|------------------------------------------|       E|--------------------------|------------------------------0-|--------------|

(A primeira parte da música é padrão em Em, mas você pode fazer uns arranjos pra não ficar muito sem graça.)

É o cão, é o cânhamo...
E|------------------0---------|------------------0------|--------------|--------------|
B|-------0--------0---0---0---|----------0------0--0----|--------------|--------------|
G|-----0---0----0--------0-0--|--------0---0---0-----0--|--------------|--------------|
D|----------------------------|-------------------------|--------------|--------------|
A|----------------------------|-------------------------|--------------|--------------|
E|--0--------0----------0-----|-3-2-0-------0-0--------0|--------------|--------------|

Pré Refrão:

É o Sleazestack, Zóio branco repara o brilho....
E|---------------------------|-------------------------0---|-------------------|------------------|
B|-------0--------0------0---|-------0------0--------0-----|-----0------0------|------------------|
G|-----0-------0--------0-0--|----0------0---------0-------|---0------0--------|------------------|
D|---4-------2---------------|--4------2-------------------|-4-----2-----------|------------------|
A|---------------------------|-----------------------------|-------------------|---------5-4-2----|
E|-------------------3-------|------------------2----------|---------------3---|-3-2-3-5----------|

Ha ha hahah
E|------------------0---------|------------------0------|--------------|--------------|
B|-------0--------0---0---0---|----------0------0--0----|--------------|--------------|
G|-----0---0----0--------0-0--|--------0---0---0-----0--|--------------|--------------|
D|----------------------------|-------------------------|--------------|--------------|
A|----------------------------|-------------------------|--------------|--------------|
E|--0--------0----------0-----|-3-2-0-------0-0--------0|--------------|--------------|
Composição de Criolo / Daniel Ganjaman / Marcelo Cabral / Rodrigo Campos
Colaboração e revisão:
  • victor ramos
2.792 exibições
    • ½ Tom
    • A
    • Bb
    • B
    • C
    • Db
    • D
    • Eb
    • E
    • F
    • F#
    • G
    • Ab
  • Adicionar à lista

    0 comentários

    Ver todos os comentários

    Conseguiu tocar?

    0 Tocaram 0 Ainda não

    Grave um vídeo tocando Duas de Cinco e nos envie!

    00:00 / 00:00
    Outros vídeos desta música
    Repetir Qualidade Automático
    Outros vídeos desta música
    00:00 / 00:00
    Automático

    Cifra Club Pro

    Aproveite o Cifra Club com benefícios exclusivos e sem anúncios
    Cifra Club Pro
    Aproveite o Cifra Club com benefícios exclusivos e sem anúncios
    OK