Cifra Club

Aprenda

Grajauex

Criolo

Cifra: Principal (violão e guitarra)
tom: Bb (forma dos acordes no tom de B) Afinação: Eb Ab Db Gb Bb Eb
Grajauex

INTRO: 
E|------------------------------
B|-4--5-4-----------------------
G|-------6-4--4-----4-6-4--4----
D|----------6-----6-------6-4---
A|------------------------------
E|------------------------------

E|------------------------------
B|-4--5-4-----------------------
G|-------6-4--4-----4-6-4--4----
D|----------6-----6-------6-6---
A|----------------------------4-
E|----------------------------2-

E|------------------------------
B|-4--5-4-----------------------
G|-------6----------4-6-4--4----
D|----------------6-------6-6---
A|----------4-6---------------4-
E|----------2-4---------------2-

E|------------------------------
B|-4--5-4-----------------------
G|-------6----------------------
D|------------------------------
A|----------4-6-6-6-------------
E|----------2-4-4-4---

Riff:

E|------------------------------
B|------------------------------
G|------------------------------
D|-6----------------------------
A|-6--XX-X--XXXXX-X-------------
E|-4--XX-X--XXXXX-X-------------

E|----16~-----------------------
B|----16~-----------------------
G|------------------------------
D|-4---------4-4-4----4-4-4-----
A|-4-X-------4-4-4----4-4-4-----
E|-2-X-------2-2-2----2-2-2-----

E|------------------------------
B|------------------------------
G|------------------------------
D|-6------4/6~~-----------------
A|-6--X-------------------------
E|-4--X-------------------------

E|----16~-----------------------
B|----16~-----------------------
G|------------------------------
D|-4---------4-4-4----4-4-4-----
A|-4-X-------4-4-4----4-4-4-----
E|-2-X-------2-2-2----2-2-2-----

    G#5
The Grajauex
Duas laje é triplex
   F#5        G#m
No morro os moleques, o vapor
        
É o Play 3 na golfera te sai, chanex
É o ouro branco, o pó mágico e o poder de um Rolex
Na favela, com fome, atrás dos Nike Air Max
Os canela cinzenta que não tem nem cotonets
Os MC das antiga é dinossauro T-Rex
Pra fazer bobaginha cole ali com Jontex
Pra zuar na rua com os cachorro é pex pex
E as princesinha na nóia de um papel faz bo...

The Grajauex
Duas laje é triplex
No morro os moleques, o vapor (2x)

Os irmão que tão com fome desce três marmitex
Sabão de côco não é Pompom com Protex
No almoço o Sodex, meu advogado é o Alex
E se jogo do bicho é contravenção, Mega Sena é ilusão pra colar com durex
A responsa de chegar garante o seu retornex
*The IporanguIX a connect co ex*
Atrás de um verdix pra mandar por sedex
Zona sul é o universo e os vagabundo é belezex
Aqui eu não to de tricotex
E eu também não tô com medo irmãozex
É, zona sul é o universo, filho, tá pagando de louco?

The Grajauex
Duas laje é triplex
No morro os moleques, o vapor (2x)

(Criolo doido)

The Grajauex
Duas laje é triplex
No morro os moleques, o vapor (2x)
Colaboração e revisão:
  • Maurício Freitas
8.705 exibições
    • ½ Tom
    • A
    • Bb
    • B
    • C
    • Db
    • D
    • Eb
    • E
    • F
    • F#
    • G
    • Ab
  • Adicionar à lista

    0 comentários

    Ver todos os comentários

    Conseguiu tocar?

    2 Tocaram 0 Ainda não

    Grave um vídeo tocando Grajauex e nos envie!

    00:00 / 00:00
    outros vídeos desta música
    repetir qualidade Automático
    Outros vídeos desta música
    00:00 / 00:00
    Automático

    Cifra Club Pro

    Aproveite o Cifra Club com benefícios exclusivos e sem anúncios
    Cifra Club Pro
    Aproveite o Cifra Club com benefícios exclusivos e sem anúncios
    OK