Cifra Club

Aprenda

Lion Man

Criolo

Cifra: Principal (violão e guitarra)
Tom: F
Intro:
E|-------------------------------------------|
B|-------------------------------------------|
G|-------------------------------------------|
D|-5h7-5-3----------3--------5h7-5-3---------|
A|---------5--3--5-------------------5--3--5-|
E|-------------------------------------------|

(0:16)
E|-10--10--------------10--10----------------|
B|-10-----10--------10--------10----10-------|
G|-10--------10--10--------------10----------|
      
      Dm
E se fosse pra ter medo,
 C
Dessa estrada,
        Dm
Eu não taria tanto tempo,
C
Nessa caminhada.
  Dm
Artista independente
    C
Leva no peito a responsa,
  Dm
Tiozão!
       C
E não vem dizer que não.
    Dm
Um lance, uma passagem,
      C
O tabuleiro causa medo,
   Dm
O teu olhar,
      C
É o desenho do desespero.
     Dm
E já era,
       C
Tua rainha tá ciscando,
   Dm
Já era,
  C
Vai cair o rei!

Ponte:
B|------------10-------------------------------|
G|--------10-----10h12--10h12--10h12-----------|
D|-10--12--------------------------------------|

B|------------10-------------------------------|
G|--------10-----10h12--10h12--10h12---10~-----|
D|-10--12--------------------------------------|

 Dm           C
Vamos as atividades do dia,
  Dm             C
Lavar os copos, contar os corpos,
     Dm           C
E sorrir, à essa morna rebeldia.

(Só os louco)
     Dm             C
O Criolo quer colar, pra somar,
  Dm                   C
Sempre foi assim (óóh) o que vivi,
 Dm                   C
Acho melhor não desacreditar fi,
      Dm                  C
Os moleque é novim, e faz um dinhero sim.

(Dm C)

Uma mente moderna,
Porém malacabada,
É o ser humano o egoísmo e uma adaga,
Pátria amada o que oferece aos teus filhos,

Sofridos, dignidade ou jazigos?
O cordeiro vira lobo, E o lobo tem seu ofício.

É a uva o trigo, A pasta é o orifício,
e quem fornece a brisa?
(héhéhéhé)

Se fortalece no punhado, de desgraçados mal amados,
Que só querem matar a fome.

E agora quem é mais ou menos homem?
Irmãos, na pior situação,
MC bom é mais que Photoshop e refrão.

     Dm
E já era,
       C
Tua rainha tá ciscando,
   Dm
Já era,
  C
Vai cair o rei!

Ponte:
B|------------10-------------------------------|
G|--------10-----10h12--10h12--10h12-----------|
D|-10--12--------------------------------------|

B|------------10-------------------------------|
G|--------10-----10h12--10h12--10h12---10~-----|
D|-10--12--------------------------------------|

 Dm           C
Vamos as atividades do dia,
  Dm             C
Lavar os copos, contar os corpos,
     Dm           C
E sorrir, à essa morna rebeldia.

(Só os louco)
     Dm             C
O Criolo quer colar, pra somar,
  Dm                   C
Sempre foi assim (óóh) o que vivi,
 Dm                   C
Acho melhor não desacreditar fi,
      Dm                  C
Os moleque é novim, e faz um dinhero sim.

Ponte:
B|------------10-------------------------------|
G|--------10-----10h12--10h12--10h12-----------|
D|-10--12--------------------------------------|

B|------------10-------------------------------|
G|--------10-----10h12--10h12--10h12---10~-----|
D|-10--12--------------------------------------|

Dm   C
Abandonado cão,
  Dm         C
Sozinho na multidão,
    Dm         C            Dm   C
Há solidão no coração de alguém.
Dm         C
Paz para os meus irmãos,
   Dm         C
Seguirem nesse mundão,
    Dm      C         Dm
Criolo no estilo LION MAN!!!
Composição de Criolo
Colaboração e revisão:
  • Ulysses Verza
15.420 exibições
    • ½ Tom
    • A
    • Bb
    • B
    • C
    • Db
    • D
    • Eb
    • E
    • F
    • F#
    • G
    • Ab
  • Adicionar à lista

    0 comentários

    Mostrar mais comentários

    Conseguiu tocar?

    3 Tocaram 0 Ainda não

    Grave um vídeo tocando Lion Man e mande pra gente!

    00:00 / 00:00
    outros vídeos desta música
    repetir qualidade Automático
    Outros vídeos desta música
    00:00 / 00:00
    Automático

    Cifra Club Pro

    Aproveite o Cifra Club com benefícios exclusivos e sem anúncios
    Cifra Club Pro
    Aproveite o Cifra Club com benefícios exclusivos e sem anúncios
    OK