Cifra Club

Aprenda

Samba Sambei

Criolo

Tab de baixo: Principal
Intro (00:07)
G|----------------------------------------------------------------------------------------| 1x
D|----------------------------------------------------------------------------------------|
A|-9--7-9-9-----7-7----9-7-9-9-----7-7----9--7-9-9-----7-7--------------------------------|
E|----------9-9-----7----------9-9-----7-----------9-9-----7------------------------------|

Samba assim... (00:21 até 00:54)
G|----------------------------------------------------------------------------------------|
D|----------------------------------------------------------------------------------------|
A|---------------------------7---7--------------------------------------------------------|
E|-9-6-2-0-0-0-4-7--9-6-2--7---7----------------------------------------------------------|

De onde vem... (00:57 até 01:44)
G|----------------------------------------------------------------------------------------|
D|----------------------------------------------------------------------------------------|
A|-9-9-7-9-9---7-7----9-9-7-9-9-----------------------------------------------------------|
E|-----------9-----7------------9--7------------------------------------------------------|

Samba assim... (01:53 até 02:19)
G|----------------------------------------------------------------------------------------|
D|----------------------------------------------------------------------------------------|
A|---------------------------7---7--------------------------------------------------------|
E|-9-6-2-0-0-0-4-7--9-6-2--7---7----------------------------------------------------------|

Eu vejo a mata... (02:21)
G|----------------------------------------------------------------------------------------| 1x
D|----------------------------------------------------------------------------------------|
A|-9-9-7-9-9---7-7----9-9-7-9-9-----------------------------------------------------------|
E|-----------9-----7------------9---------------------------------------------------------|

Se tem ideia... (02:28 até 03:03)
G|----------------------------------------------------------------------------------------|
D|----------------------------------------------------------------------------------------|
A|-9-9-7-9-9---7-7----9-9-7-9-9---7-7----9-9-7-9-9---7-7----9-9-7-9-9---------------------|
E|-----------9-----7------------9-----7------------9-----7------------9--7----------------|

FIM 1 (03:04)
G|----------------------------------------------------------------------------------------| 1x
D|----------------------------------------------------------------------------------------|
A|-------------------------7---7----------------------------------------------------------|
E|-9-6-2-0-0-0-4-7--9-6-2----7------------------------------------------------------------|

FIM 2 (03:18)
G|----------------------------------------------------------------------------------------| 1x
D|----------------------------------------------------------------------------------------|
A|---------------------------7---7--------------------------7---7-------------------------|
E|-9-6-2-0-0-0-4-7--9-6-2--7---7----9-6-2-0-0-0-4-7--9-6-2----7----9-6-2-0-0-0-4-7--9-6-2-|
Composição de Criolo
Colaboração e revisão:
  • Walter Brow
103 exibições

0 comentários

Ver todos os comentários

Conseguiu tocar?

0 Tocaram 0 Ainda não

Grave um vídeo tocando Samba Sambei e nos envie!

00:00 / 00:00
outros vídeos desta música
repetir qualidade Automático
Outros vídeos desta música
00:00 / 00:00
Automático

Cifra Club Pro

Aproveite o Cifra Club com benefícios exclusivos e sem anúncios
Cifra Club Pro
Aproveite o Cifra Club com benefícios exclusivos e sem anúncios
OK