Cifra Club

Aprenda

Subirusdoistiozin

Criolo

Tab de baixo: Principal
Intro (00:08)
G|-10h12p10h12p10h12p10h12-10h12p10h12p10h12p10h12-----------------------------------| 1x
D|-----------------------------------------------------------------------------------|
A|-------------------------------------------------22\17\12--------------------------|
E|----------------------------------------------------------10-----------------------|

Mandei falar... (00:16)
G|-----------------------------------------------------------------------------------| 3x
D|-----------------------------------------------------------------------------------|
A|------9---8---7---9----9---8---9-7---7---------------------------------------------|
E|-7-10---9---8---7---10---9---8-----9---7-------------------------------------------|

Parapapá... (00:50)
G|-----------------------------------------------------------------------------------| 1x
D|-----------------------------------------------------------------------------------|
A|--------9-7--------7--------9-7----------------------------------------------------|
E|-0-7-10-----10-7-9---10-9-8-----9-7------------------------------------------------|

Parapapá... (00:55)
G|-----------------------------------------------------------------------------------| 3x
D|-----------------------------------------------------------------------------------|
A|----------9-7------8-7-----7-9-----------------------------------------------------|
E|-0-7-9-10-----10-9-----9-8-----8-7-------------------------------------------------|

Só função... (01:12)
G|-----------------------------------------------------------------------------------| 3x
D|-----------------------------------------------------------------------------------|
A|-----------------------------------------------------------------------------------|
E|-0-7-10--0-10-9--0-9-8--0-8-7------------------------------------------------------|

Os pereco vem... (01:29)
G|-----------------------------------------------------------------------------------| 1x
D|-----------------------------------------------------------------------------------|
A|-----------------------0-7-9--------------------------7-9--------------------------|
E|-0-7-10--0-10-9--0-9-8-------7--0-7-10--0-10-9--0-9-8-----10-9-7-------------------|

que covardes são... (01:40)
G|-----------------------------------------------------------------------------------| 1x
D|-----------------------------------------------------------------------------------|
A|-----------------------7-9---------------------------------------------------------|
E|-0-7-10--0-10-9--0-9-8-----10-9-7~/10~\9~------------------------------------------|

Uns achão que são... (01:51)
G|-----------------------------------------------------------------------------------| 1x
D|-----------------------------------------------------------------------------------|
A|---9-7------9-7------8-7-----7-9---------------------------------------------------|
E|-7-----10-9-----10-9-----9-8-----8-7-----------------------------------------------|

Ser... (01:57)
G|-----------------------------------------------------------------------------------| 5x
D|-----------------------------------------------------------------------------------|
A|----------9-7------8-7-----7-9-----------------------------------------------------|
E|-0-7-9-10-----10-9-----9-8-----8-7-------------------------------------------------|

Só função... (02:24)
G|-----------------------------------------------------------------------------------| 1x
D|------------4/7-6-5~--4/7-6-5~--4/7-6-5~--4/7-6-5~--4/7-6-5~-----------------------|
A|-----------------------------------------------------------------------------------|
E|-7~/10~\9~-------------------------------------------------------------------------|

(02:58)
G|-----------------------------------------------------------------------------------| 1x
D|-----------------------------------------------------------------------------------|
A|-0-9-7-----9-7------8-7-----7-9----------------------------------------------------|
E|-------10------10-9-----9-8-----8-7------------------------------------------------|

(03:03)
G|-----------------------------------------------------------------------------------| 4x
D|-----------------------------------------------------------------------------------|
A|----------9-7------8-7-----7-9-----------------------------------------------------|
E|-0-7-9-10-----10-9-----9-8-----8-7-------------------------------------------------|

(03:25)
G|-----------------------------------------------------------------------------------| 1x
D|-----------------------------------------------------------------------------------|
A|-9--------9-7------8-7-------------------------------------------------------------|
E|---7-9-10-----10-9-----9-----------------------------------------------------------|
Colaboração e revisão:
  • Walter Brow
1.727 exibições

0 comentários

Ver todos os comentários

Conseguiu tocar?

0 Tocaram 0 Ainda não

Grave um vídeo tocando Subirusdoistiozin e nos envie!

00:00 / 00:00
outros vídeos desta música
repetir qualidade Automático
Outros vídeos desta música
00:00 / 00:00
Automático

Cifra Club Pro

Aproveite o Cifra Club com benefícios exclusivos e sem anúncios
Cifra Club Pro
Aproveite o Cifra Club com benefícios exclusivos e sem anúncios
OK