Cifra Club

Cê Que Sabe

Cristiano Araújo

Cifra: Principal (violão e guitarra)
tom: Bbm (forma dos acordes no tom de Gm) Capotraste na 3ª casa
[Intro]

[Tab - Intro]

E|------------------------------------------|
B|-0------0h1---0---------------------------|
G|---0----0h2---0---------------------------|
D|------------------------------------------|
A|------------------------------------------|
E|------------------------------------------|

   G
E|------------------------------------------|
B|------------------------------------------|
G|------0h2--0-----x-x-------0h2--0-----x-x-|
D|---0--0----0--x--x-x----0--0----0--x--x-x-|
A|--------------x--x-x---------------x--x-x-|
E|-3------------x-------3------------x------|

[Primeira Parte]

[Tab - Primeira Parte]

Parte 1 de 4
   G
E|------------------------------------------|
B|------------------------------------------|
G|------0h2--0------0h2--0------------------|
D|---0--0----0------0----0------------------|
A|---------------0--------------------------|
E|-3----------------------------------------|

Parte 1 de 4 - Variação
   G
E|------------------------------------------|
B|------------------------------------------|
G|------0h2--0------0h2--0------------------|
D|---0--0----0------0----0------------------|
A|------------------------------------------|
E|-3-------------3--------------------------|

Parte 2 de 4
   D/F#
E|------------------------------------------|
B|------------------------------------------|
G|------0h2--0------0h2--0------------------|
D|---0--0----0---0--0----0------------------|
A|------------------------------------------|
E|-2----------------------------------------|

Parte 3 de 4
   C9
E|------------------------------------------|
B|------------------------------------------|
G|------0h2--0------------------------------|
D|---0--0----0------------------------------|
A|-3----------------------------------------|
E|------------------------------------------|

Parte 4 de 4
   D#5         F
E|------------------------------------------|
B|------------------------------------------|
G|---0--3p2----2---0h2--0-------------------|
D|-1-----------3----------------------------|
A|------------------------------------------|
E|------------------------------------------|

G                            D/F#
  O que temos pra hoje é saudade
C9
   Mas qual de nós vai procurar
D#5                    F
    Um pretexto, um motivo pra voltar

G                               D/F#
  Foi ontem mas eu já sinto vontade
C9
   Das bocas juntas e o calor
D#5                F
    Do nosso lugarzinho de amor

[Segunda Parte]

G
  Já é tarde, tá frio 
D
  É noite, eu sozinho
C9
   Minhas mãos tão comichando pra ligar
D#5
    Final 1504 pra falar

[Refrão] 

G       D             Am
  Ôuô, cê que sabe, amor
                                C
Se a gente fica junto ou dá um tempo
                     D
Mesmo assim eu te espero, te espero

G       D             Am
  Ôuô, cê que sabe, amor
                                C
Nossa relação tem tudo pra dar certo
                    D
Nós já estamos tão perto, tão perto
 G      D  Am  C  D
Coração

[Segunda Parte]

G
  Já é tarde, tá frio 
D
  É noite, eu sozinho
C9
   Minhas mãos tão comichando pra ligar
D#5
    Final 1504 pra falar

[Refrão]

G       D             Am
  Ôuô, cê que sabe, amor
                                C
Se a gente fica junto ou dá um tempo
                     D
Mesmo assim eu te espero, te espero

G       D             Am
  Ôuô, cê que sabe, amor
                                C
Nossa relação tem tudo pra dar certo
                    D
Nós já estamos tão perto, tão perto

G       D             Am
  Ôuô, cê que sabe, amor
                                C
Se a gente fica junto ou dá um tempo
                     D
Mesmo assim eu te espero, te espero

G       D             Am
  Ôuô, cê que sabe, amor
                                C
Nossa relação tem tudo pra dar certo
                    D
Nós já estamos tão perto, tão perto
 G      D/F#
Coração

C9                                 D#5
   Nossa relação tem tudo pra dar certo
                    F
Nós já estamos tão perto, tão perto

G
  O que temos pra hoje é saudade

                G
E|------------------------------------------|
B|-0------0h1---0---------------------------|
G|---0----0h2---0---------------------------|
D|------------------------------------------|
A|------------------------------------------|
E|--------------3---------------------------|
00:00 / 00:00
Outros vídeos desta música
Repetir
Outros vídeos desta música
Composição de Kauã / Pedro Netto / Rafael
3.255.481 exibições
  • Simplificar cifra
    • ½ Tom
    • Am
    • Bbm
    • Bm
    • Cm
    • C#m
    • Dm
    • Ebm
    • Em
    • Fm
    • F#m
    • Gm
    • G#m
  • Adicionar à lista

    0 comentários

    Ver todos os comentários
    00:00 / 00:00
    Capítulos
    • Tocando a música
    • Dicas iniciais / Equipamentos
    • Acordes da Introdução e Primeira Parte
    • Tocando Introdução e Primeira Parte
    • Ensinando Introdução
    • Ensinando Primeira Parte
    • Acordes Segunda Parte
    • Tocando Segunda Parte
    • Ensinando Segunda Parte
    • Acordes do Refrão
    • Tocando Refrão
    • Ensinando Refrão
    • Dicas Refrão - Final
    • Tocando Refrão - Final
    • Ensinando Refrão Final
    • Encerramento
    • Ficha técnica

    Cifra Club Pro

    Aproveite o Cifra Club com benefícios exclusivos e sem anúncios
    Cifra Club Pro
    Aproveite o Cifra Club com benefícios exclusivos e sem anúncios
    OK