Cifra Club

Aprenda

Um

Crombie

Cifra: Principal (violão e guitarra)
tom: D
[Riff]

      D9 D               G#°
E|---------0-1--------4---7---|
B|-------3-----3------3---6---|
G|-----2------------4-4---7---|
D|---0------------3-----------|
A|----------------------------|
E|----------------------------|(3x)
       
E|-----------------------------------|
B|------7-------7-------7-------77---|
G|------7-------7-------7-------77---|
D|--6---6-------6-------6-------66---|
A|----7---7-5/7---7-5/7---7-5/7------|
E|-----------------------------------|

[Riff]

E|-----------------------------------------------|
B|-----------------------------------7----7------|
G|---10-7-6/4---10-7-6/4---10-7-6/4----10---10---|
D|-----------------------------------------------|
A|-----------------------------------------------|
E|-----------------------------------------------|

    D      
Te falo do único 
    D      
Eu falo do um 
      D          
Do artigo indefinido
     D         
Do amigo em comum
F#m7             B7
Um é número incomum
     F#m7            B7
Mais um é passar do ponto
F#m7               B7
Um é o número de flores
      F#m7                B7
Que seguro no primeiro encontro

   F#m7    B7
Um só é o sol
     Bm7      G#°
Não existem "sóis" 
   F#m7    B7
Um só é o céu
      Bm7     Bm7/E    A9
Um só um como nós

D                   
Um é o caminho que sigo
D              
Uma verdade vivida
D               
Uma morte é preciso
       E7/9
Mas a vida é infinda
Composição de Felipe Vellozo / Paulo Nazareth
Colaboração e revisão:
  • Naaman Heckert
  • Crystian
  • Felipe Vellozo
7.291 exibições
    • ½ Tom
    • A
    • Bb
    • B
    • C
    • Db
    • D
    • Eb
    • E
    • F
    • F#
    • G
    • Ab
  • Adicionar à lista

    0 comentários

    Ver todos os comentários
    00:00 / 00:00
    Outros vídeos desta música
    Repetir Qualidade Automático
    Outros vídeos desta música
    00:00 / 00:00
    Automático

    Cifra Club Pro

    Aproveite o Cifra Club com benefícios exclusivos e sem anúncios
    Cifra Club Pro
    Aproveite o Cifra Club com benefícios exclusivos e sem anúncios
    OK