Cifra Club

Back To Me

Cueshé

Cifra: Principal (violão e guitarra)
Selo Cifra Club: esta cifra foi revisada para atender aos critérios oficiais da nossa Equipe de Qualidade.
tom: E
E|-----7-------------------------------|
B|-----------7-------------7-----7-----|
G|--------9-------------------9--------| x3
D|--------------9-------------------9--|
A|-------------------------------------|
E|-------------------------------------|

E|-----7---------------------7---------|
B|-----------7------7-----7------------|
G|--------9------------9---------------|
D|--------------9----------------------|
A|-------------------------------------|
E|-------------------------------------|

first time ko gumawa ng tab sana may tumangkilik
ganyan po kasi ang dinig ko eh
pakirate naman po please..^_^ ty!!
Outros vídeos desta música
    2 exibições
      • ½ Tom
      • A
      • Bb
      • B
      • C
      • Db
      • D
      • Eb
      • E
      • F
      • F#
      • G
      • Ab
    • Adicionar à lista

    Afinação da cifra

    Afinador online

      0 comentários

      Ver todos os comentários

      Entre para o Cifra Club PRO

      Tenha acesso a benefícios exclusivos no App e no Site

      • Chega de anúncios

      • Badges exclusivas

      • Mais recursos no app do Afinador

      • Atendimento Prioritário

      • Aumente seu limite de lista

      • Ajude a produzir mais conteúdo

      Cifra Club Pro

      Aproveite o Cifra Club com benefícios exclusivos e sem anúncios
      Cifra Club Pro
      Aproveite o Cifra Club com benefícios exclusivos e sem anúncios
      Ops (: Contenido disponible sólo en portugués.
      OK