Cifra Club

Cant Let You Go

Cueshé

Cifra: Principal (violão e guitarra)
Selo Cifra Club: esta cifra foi revisada para atender aos critérios oficiais da nossa Equipe de Qualidade.
tom: D
E|--------------------14----14-15-17p15p14---------------|
B|--------------15-------15----------------17p15-12-11-9-|
G|-7-9-11-12-14----14----------------------------12-10-8-|
D|-------------------------------------------------------|
A|-5-7--9-10-12------------------------------------------|
E|-------------------------------------------------------|


E|---------------------------------|
B|-7h8-7---------------------------|
G|-------9-7-----------------------|
D|-----------9-7-------------------|
A|---------------10-9-10-9-7-------|
E|---------------------------10----|


E|-14h15----17-15-14----------14----17-15-14----------|
B|-------15----------17-15-17----15----------17-15-17-|
G|----------------------------------------------------|
D|----------------------------------------------------|
A|----------------------------------------------------|
E|----------------------------------------------------|


E|-----3-----5-----7-----8------10---|
B|-----------------------------------|
G|-2S4---4S5---5S7---7S9---9S11------|
D|-----------------------------------|
A|-----------------------------------|
E|-----------------------------------|


E|-------12-------14-------15-------17-------19-|
B|----------------------------------------------|
G|-11S12----12S14----14S16----16S17----17S19----|
D|----------------------------------------------|
A|----------------------------------------------|
E|----------------------------------------------|


E|-22-------------------------------|
B|----17-17b19-19r17-15-17-15-15----|
G|-------------------------14-14----|
D|----------------------------------|
A|----------------------------------|
E|----------------------------------|


E|-17p15p14-------------------------17p15p14----------------|
B|----------17p15p14-------17p15p14----------17p15p14-------|
G|-------------------16p14----------------------------16p14-|
D|----------------------------------------------------------|
A|----------------------------------------------------------|
E|----------------------------------------------------------|


E|----------------------------|
B|-15-17----------------------|
G|-------9b11-11r9-7-9-7-7----|
D|----------------------------|
A|----------------------------|
E|----------------------------|


E|---------------------------------7----|
B|-7h8-7-------------------7h8-7-----10-|
G|-------9-7h9-7-------7h9-------9------|
D|---------------9-7h9------------------|
A|--------------------------------------|
E|--------------------------------------|


E|-10S12S10----------14S15S14-10S12S10----------14S15S14-|
B|----------10S12S10-------------------10S12S10----------|
G|-------------------------------------------------------|
D|-------------------------------------------------------|
A|-------------------------------------------------------|
E|-------------------------------------------------------|


E|-17-15-14----------------------------------------------------------------------------------|
B|----------17-15-14-------17-15-14----------------------------------------------------------|
G|-------------------16-14----------16-14----------14----------------------------------------|
D|----------------------------------------17-16-14----17-16-14-------------14----------------|
A|-------------------------------------------------------------17-16-14-------17-16-14-------|
E|----------------------------------------------------------------------17-------------17----|


E|-10S12S10----------14S15S14-10S12S10----------14S15S14-|----|
B|----------10S12S10-------------------10S12S10----------|----|
G|-------------------------------------------------------|----|
D|-------------------------------------------------------|----|
A|-------------------------------------------------------|----|
E|-------------------------------------------------------|----|
Outros vídeos desta música
    0 exibições
      • ½ Tom
      • A
      • Bb
      • B
      • C
      • Db
      • D
      • Eb
      • E
      • F
      • F#
      • G
      • Ab
    • Adicionar à lista

    Afinação da cifra

    Afinador online

      0 comentários

      Ver todos os comentários

      Entre para o Cifra Club PRO

      Tenha acesso a benefícios exclusivos no App e no Site

      • Chega de anúncios

      • Badges exclusivas

      • Mais recursos no app do Afinador

      • Atendimento Prioritário

      • Aumente seu limite de lista

      • Ajude a produzir mais conteúdo

      Cifra Club Pro

      Aproveite o Cifra Club com benefícios exclusivos e sem anúncios
      Cifra Club Pro
      Aproveite o Cifra Club com benefícios exclusivos e sem anúncios
      Ops (: Contenido disponible sólo en portugués.
      OK