Cifra Club

Long Time Ago

Current Swell

Cifra: Principal (violão e guitarra)
tom: G
   G               C
E|---------------|----------------------|
B|---------------|----------------------|
G|--------0------|----------------------|
D|-----0h2-2-0-0-|--0h2-2-0h2-2-0h2-2-0-|
A|--0h2-------2--|-3--------------------|
E|-3-------------|----------------------| 3x

   Am              C
E|---------------|-----------------|
B|--------0------|--------0-3-0----|
G|-----0h2-2-0-0-|-----0h2-----2-0-|
D|--0h2-------2--|--0h2------------|
A|-0-------------|-3---------------|
E|---------------|-----------------|

   G               C
E|---------------|----------------------|
B|---------------|----------------------|
G|--------0------|----------------------|
D|-----0h2-2-0-0-|--0h2-2-0h2-2-0h2-2-0-|
A|--0h2-------2--|-3--------------------|
E|-3-------------|----------------------| 4x


G               C
 This day feels long.
G               C
 It feels brief when the light is gone.
G                               C
When I look to my youth I never thought about the time.
    G                                 C
The thought of my day to come was the last thing upon my mind.

               Am  C
But that was a long Time ago.


   G               C
E|---------------|----------------------|
B|---------------|----------------------|
G|--------0------|----------------------|
D|-----0h2-2-0-0-|--0h2-2-0h2-2-0h2-2-0-|
A|--0h2-------2--|-3--------------------|
E|-3-------------|----------------------|2x


G                 C
 My adolescent way.
G                  C
 Feels like it was only yesterday.
 G                        C
 Learning to cast my line right off the riverbed.
 G                                 C
 Feels like yesterday but it was a long time ago I said.

         Am  C
It was a long time ago.

   G           C           G           C
E|-----------|----------|-----------|----------|
B|-----------|----------|-----------|-----0----|
G|-----0-----|----------|-----0-----|----0-----|
D|----0------|----------|----0------|-0h2------|
A|-0h2-------|-2h3-2-0--|-0h2-------|----------|
E|-----------|--------3-|-----------|----------|2x

   Am              C
E|---------------|-----------------|
B|--------0------|--------0-3-0----|
G|-----0h2-2-0-0-|-----0h2-----2-0-|
D|--0h2-------2--|--0h2------------|
A|-0-------------|-3---------------|
E|---------------|-----------------|2x


G                       C
We had a blast we had a ball.
G              C
I was told man that I could have it all.
G                                C
I was told to watch every little thing that I go and say.
G                                   C
Told a long long time ago but still got it with me today.


         Am  C
It was a long
         Am  C
It was a long
            G
Long time ago.


   G               C
E|---------------|----------------------|
B|---------------|----------------------|
G|--------0------|----------------------|
D|-----0h2-2-0-0-|--0h2-2-0h2-2-0h2-2-0-|
A|--0h2-------2--|-3--------------------|
E|-3-------------|----------------------| 2x

   Am              C                 G
E|---------------|-----------------|
B|--------0------|--------0-3-0----|
G|-----0h2-2-0-0-|-----0h2-----2-0-|
D|--0h2-------2--|--0h2------------|
A|-0-------------|-3---------------|
E|---------------|-----------------|2x
00:00 / 00:00
Outros vídeos desta música
Repetir
Outros vídeos desta música
Composição de Current Swell / Scott Stanton
Colaboração e revisão:
  • Gabriel Pinheiro
4.667 exibições
    • ½ Tom
    • A
    • Bb
    • B
    • C
    • Db
    • D
    • Eb
    • E
    • F
    • F#
    • G
    • Ab
  • Adicionar à lista

    0 comentários

    Ver todos os comentários

    Entre para oCifra Club PRO

    Tenha acesso a benefícios exclusivos no App e no Site

    • Chega de anúncios

    • Prioridade de compra em lançamentos

    • Mais recursos no app do Afinador

    • Atendimento Prioritário

    • Descontos nos produtos Cifra Club

    • Ajude a produzir mais conteúdo

    00:00 / 00:00

    Cifra Club Pro

    Aproveite o Cifra Club com benefícios exclusivos e sem anúncios
    Cifra Club Pro
    Aproveite o Cifra Club com benefícios exclusivos e sem anúncios
    OK