Cifra Club

Me Acorde Pra Vida

CW7

Cifra: Principal (violão e guitarra)
tom: D
Intro: Bm  D  A  Em  Bm  D  A  G  Em
E|-----------------------------------------------------------------------------
B|-----------------------------------------------------------------------------
G|-----------------------------------------------------------------------------
D|-----------------------------------------------------------------------------
A|-----2-----5-4-5-----5-4-5---5-4-5-4-5-4-2------5-4-5----5-4-5---5-4-7-5-4-5-
E|-----------------------------------------------------------------------------

Bm
Não sou estranha
D
Não sou mutante
A
Não sou irreal
Em
Não sou igual

Bm
Não sei te dizer
D
Não sei me expressar
A
Eu não sou do mal
Em
Só não sou igual

G
Por mais que eu tente explicar
A
Você não vai sacar

Refrão:
D       G       Em      A        Bm
Me acorde pra vida, me ensine a viver
D               G          A        D
Eu quero ver o sol nascer perto de você
D       G       Em      A        Bm
Me acorde pra vida, me ensine a viver
    A       G           A          Bm
Me dê uma saída pra ir embora com você

Riff: Bm  D  A  Em  Bm  D  A  Em
E|--------------------------------------------------------------------------------
B|--------------------------------------------------------------------------------
G|--------------------------------------------------------------------------------
D|--------------------------------------------------------------------------------
A|-----2-----5-4-5----5-4-0---5-4-7----5--4------2------5-4-5-------9-7-5-4-4-5-2-
E|--------------------------------------------------------------------------------

Bm
Não vou pro inferno
D
Mas não tenho asas
A
Não siga meus passos
Em
Mas não me deixe só
Bm
Não sei te dizer
D
Não sei me expressar
A
Eu não sou do mal
Em
Só não sou igual

G
Por mais que eu tente explicar
A
Você não vai sacar

Refrão:
D       G       Em      A        Bm
Me acorde pra vida, me ensine a viver
D               G          A        D
Eu quero ver o sol nascer perto de você
D       G       Em      A        Bm
Me acorde pra vida, me ensine a viver
    A       G           A          Bm
Me dê uma saída pra ir embora com você

Solo: Bm  D  A  Em  Bm  D  A  Em  G  D  A  G  D  A
E|-----------------------------------------9-10-9---------------------------------------
B|-----10--8---7-7------------7-------------------10------------------------------------
G|-7----------------7---7-9-9---9-11-9---7-----------9-7-9-7---7-11-11-11-9-9-11-11-7-7-
D|-----------------------------------------------------------9--------------------------
A|--------------------------------------------------------------------------------------
E|--------------------------------------------------------------------------------------

(Refrão)

Final: G  D  A  G  D  A
00:00 / 00:00
Outros vídeos desta música
Repetir
Outros vídeos desta música
Composição de Pipo / Mia
Colaboração e revisão:
  • Jonathan Silva]
  • Paulo Andraus
37.058 exibições
    • ½ Tom
    • A
    • Bb
    • B
    • C
    • Db
    • D
    • Eb
    • E
    • F
    • F#
    • G
    • Ab
  • Adicionar à lista

    0 comentários

    Ver todos os comentários

    Entre para oCifra Club PRO

    Tenha acesso a benefícios exclusivos no App e no Site

    • Chega de anúncios

    • Prioridade de compra em lançamentos

    • Mais recursos no app do Afinador

    • Atendimento Prioritário

    • Descontos nos produtos Cifra Club

    • Ajude a produzir mais conteúdo

    00:00 / 00:00

    Cifra Club Pro

    Aproveite o Cifra Club com benefícios exclusivos e sem anúncios
    Cifra Club Pro
    Aproveite o Cifra Club com benefícios exclusivos e sem anúncios
    OK