Cifra Club

Dizz Knee Land

Dada

Cifra: Principal (violão e guitarra)
tom: Bb (forma dos acordes no tom de A) Capotraste na 1ª casa
From: * (Jeff Matson)



transcribed by Jeff Matson (*)

 okay, here is where i put a little disclaimer.  this is not really
 a complete version.  i started working on this a while ago, and i
 gave up and moved on to other things before i had finished.  after reading
 figured i would post what i had, anyway.  if i ever get around to cleaning
 this up i'll send it in to nevada.  for now, this should be enough to get
 people started, anyway.

 --jeff

Capo first fret.

 Main Riff

 e ------------------------------------------------------------------------|
 B -9/10-10-10-10-12-10-10-10-8-8-8-8-8-7-5-3--1h3-3-3-3-3-3---------------|
 G -----------------------------------------------------------2h4-4-4-4-4--|

 e --------|
 B --------|
 G -2-0-2--|

 There are no real verse chords, but you can fake it with
     D         G
   557775    355433


 Bridge:

    G         F
  355433    133211

i couldn't figure out the weird bendy part with the guitar that comes after
the bridge.  it may be a G with some weird effects.

From: * (Dave Singer)

for one guitar.  If anyone has any corrections please post them.



                                           tabbed by Dave Singer

-3-3-3-3-3--3--3--3--3---1-1-1-1-1--1--1--1--1-------------------|
-3-3-3-3-2--2--3--2--2---1-1-1-1-0--0--1--0--0-------------------|
-2-2-2-2-2--2--2--2--2---0-0-0-0-0--0--0--0--0-------------------|
-2-2-2-2-2--2--2--2--2---0-0-0-0-0--0--0--0--0-------------------|
-----------------------------------------------------------------|
-----------------------------------------------------------------|

-3-3-3-3-3--3--3--3--3---1-1-1-1-1--1--1--1--1-------------------|
-3-3-3-3-2--2--3--2--2---1-1-1-1-0--0--1--0--0-------------------|
-2-2-2-2-2--2--2--2--2---0-0-0-0-0--0--0--0--0-------------------|
-2-2-2-2-2--2--2--2--2---0-0-0-0-0--0--0--0--0-------------------|
-----------------------------------------------------------------|
-----------------------------------------------------------------|

--0----3-3--2-2--------------------------------------------------|
--1----3-3--3-3--------------------------------------------------|
--2----4-4--2-2--------------------------------------------------|
--3----5-5--0-0------------3--5--3--0----------------------------|
--3---------------0--3--5----------------------------------------|
---------------------------------------3--2----------------------|

--0----3-3--2-2--------------------------------------------------|
--1----3-3--3-3--------------------------------------------------|
--2----4-4--2-2------------------2-------------------------------|
--3----5-5--0-0------------3--5--3--------4----------------------|
--3---------------0--3--5-----------0--3--5----------------------|
-----------------------------------------------------------------|

--0----3-3--2-2--------------------------------------------------|
--1----3-3--3-3--------------------------------------------------|
--2----4-4--2-2--------------------------------------------------|
--3----5-5--0-0------------3--5--3--0----------------------------|
--3---------------0--3--5-------------------------4--2--0--------|
---------------------------------------3--2--1----5--3--2--------|

From: Don Hasenmayer 

                      From the album "Puzzle"
This song is NOT in Pitch on the record;listening to the open strings
it's in D

Credt to Jeff Matson (*) Suggests to Capo first fret
Credt to Dave Singer (*) Song is in  D most chords are D
and G.

Intro Riff 3X
--------------------------------------------------------------------------|
---------------------------------------------15--15--15--15---------------|
12/14--14--14--14h16--14--14--14--14--11h12--12--12--12--12--12--11--9--7-|
-0--0---0---0---0--0---0---0---0---0--0--0---0---0---0---0---0---0---0--0-|
--------------------------------------------------------------------------|
--------------------------------------------------------------------------|
                                              ^ (15) not played for  intro
-----------------------------------------------------------------|
-----------------------------------------------------------------|
5h7---7---7---7---7--7--7--7---2/4---4---4---4---4---4---2--0--2-|
0-0---0---0---0---0--0--0--0---0-0---0---0---0---0---0---0--0--0-|
-----------------------------------------------------------------|
-----------------------------------------------------------------|

Verse 1
D
D
D                                G
D                                G

Bridge 1 Chord shapes Approx strum
A7sus4   A   A7sus4  A       G7sus4 G     G7sus4  G G         2X
 d u d   d   u u    u d    . d u d  d...   u u  u.d..
-5-5-5---5---5-5----5-5------3-3-3--3------3-3--3-3-------|
-5-5-5---5---5-5----5-5------3-3-3--3------3-3--3-3-------|
-7-7-7---6---7-7----6-6------5-5-5--4------5-5--4-4-------|
-5-5-5---7---5-5----5h7------3-3-3--5------3-3--5-5-------|
-7-7-7---7---7-7----7-7------5-5-5--5------5-5--5-5-------|
-5-5-5---5---5-5----5-5------3-3-3--3------3-3--3-3-------|

Intro riff 1X

Verse 2
D
D
D                              G
D                              G                            oh
                                                            come on
Bridge 2

A7sus4   A   A7sus4  A       G7sus4 G     G7sus4  G G         2X
 d u d   d   u u    u d    . d u d  d...   u u  u.d..
-5-5-5---5---5-5----5-5------3-3-3--3------3-3--3-3-------|
-5-5-5---5---5-5----5-5------3-3-3--3------3-3--3-3-------|
-7-7-7---6---7-7----6-6------5-5-5--4------5-5--4-4-------|
-5-5-5---7---5-5----5h7------3-3-3--5------3-3--5-5-------|
-7-7-7---7---7-7----7-7------5-5-5--5------5-5--5-5-------|
-5-5-5---5---5-5----5-5------3-3-3--3------3-3--3-3-------|

Intro riff 1X

Then to bridge Chords Fmaj7.  G G     D.
Sustain
Fmaj7     G  G   D     Approx>
--0-------3--3---2-----------------------------------|
--1-------0--0---3-----------------------------------|
--2-------0--0---2-----------------0-----------------|
--3-------0--0---0------------0--3---3-0-------------|
----------2--2-----------0--3------------------------|
----------3--3----------------------------3--2-------|
2nd
Fmaj7     G  G   D
--0-------3--3---2---------------------------------|
--1-------0--0---3---------------------------------|
--2-------0--0---2-----------------0-2-------------|
--3-------0--0---0------------0--3---3-0------0----|
----------2--2-----------0--3------------0--3------|
----------3--3-------------------------------------|
3rd
Fmaj7     G  G   D
--0-------3--3---2------------------------------------|
--1-------0--0---3------------------------------------|
--2-------0--0---2-----------------0------------------|
--3-------0--0---0------------0--3---3-0--------------|
----------2--2-----------0--3-------------------------|
----------3--3----------------------------3--2--1-----|
4th time
Fmaj7           D       to Verse 3
--0--------------------------------2-----|
--1--------------------------------3-----|
--2--------------------------------2-----|
--3--------------------------------0-----|
-----------------4--2-0------------------|
-------------1---5--3-2------------------|
Intro rif 1x

Verse 3 Quiet one

Kicked my Ass out of school
Rolled me ou tinto the street
Hitched a ride on  Monkeys Back
Headed west into the Black

Intro riff 2x


Lead Help (Chords D & G)! Starts off of D chord 10th position

one identifiable part goes something like:

-10-10-10-10-10-10-10-10-10-10----13-13-13-13-13-13-----------|
-7---7--7--7--7-7---7--7--7--7----10-10-10-10-10-10-----------|
--------------------------------------------------------------|
--------------------------------------------------------------|
--------------------------------------------------------------|
--------------------------------------------------------------|
00:00 / 00:00
Outros vídeos desta música
Repetir
Outros vídeos desta música
Composição de Joie Calio / Michael Gurley / Phil Leavitt
394 exibições
    • ½ Tom
    • A
    • Bb
    • B
    • C
    • Db
    • D
    • Eb
    • E
    • F
    • F#
    • G
    • Ab
  • Adicionar à lista

    0 comentários

    Ver todos os comentários

    Conseguiu tocar?

    0 Tocaram 0 Ainda não

    Grave um vídeo tocando Dizz Knee Land e nos envie!

    Entre para oCifra Club PRO

    Tenha acesso a benefícios exclusivos no App e no Site

    • Chega de anúncios

    • Prioridade de compra em lançamentos

    • Mais recursos no app do Afinador

    • Atendimento Prioritário

    • Descontos nos produtos Cifra Club

    • Ajude a produzir mais conteúdo

    00:00 / 00:00

    Cifra Club Pro

    Aproveite o Cifra Club com benefícios exclusivos e sem anúncios
    Cifra Club Pro
    Aproveite o Cifra Club com benefícios exclusivos e sem anúncios
    OK