Cifra Club

Voyager

Daft Punk

Tab de baixo: Principal
Tuning: BEADG

G|---------------------------------|-----------------------|
D|---------------5-----------------|-----------------------|
A|------7---5-7--------5-7-7-------|--4--------------------|
E|---------------------------------|-------3-----5---------|
B|--5----------------5--------x--2-|------------------2--1-|

G|----5---------------------|---------4--------------------|
D|------x--3-------2--------|--7--------5--6---------------|
A|--------------------------|-----5------------------------|
E|--3----------3------------|------------------------------|
B|----------------------3---|------------------3---5-------|

Except from it start, the first note is always played on the off-beat.

G|---------------------------------|-----------------------|
D|---------------5-----------------|-----------------------|
A|------7---5-7--------5-7-7-------|--4--------------------|
E|---------------------------------|-------3-----5---------|
B|-------------------5--------x--2-|------------------2--1-|

G|----5---------------------|---------4--------------------|
D|------x--3-------2--------|--7--------5--6---------------|
A|--------------------------|-----5------------------------|
E|--3----------3------------|------------------------------|
B|----------------------3---|------------------3---5-------|
exibições 763

0 comentários

mostrar mais comentários

Conseguiu tocar?

0 tocaram 0 ainda não

Grave um vídeo tocando Voyager e mande pra gente!

00:00 / 00:00
outros vídeos desta música
repetir qualidade Automático
Outros vídeos desta música
00:00 / 00:00
Automático
OK