Cifra Club

Survive

Daiki Kasho

Cifra: Principal (violão e guitarra)
Selo Cifra Club: esta cifra foi revisada para atender aos critérios oficiais da nossa Equipe de Qualidade.
tom: E
E|--------------------------------------------------8-8-8-8-10-10-10-10-12-12-12-12-|
B|------------------------------8-8-8-8-10-10-10-10---------------------------------|
G|-7---7---7-----10p7--10p7--10-----------------------------------------------------|
D|----------------------------------------------------------------------------------| x4
A|----------------------------------------------------------------------------------|
E|----------------------------------------------------------------------------------|

[Intro]

A B C#m B C#m

[Verse 1]

C#m
I can't, I can't survive
C#m
Struggle to find the way, but faith is on my side
                    A
There's nothing left, block out!
F#          A                 F#
Stuck in my life, why can't I go do my thing
A
Break out!
F#         A                   E
Nothing to gain, you know it feels like ash

[Verse 2]

C#m
I can't, I can't describe
C#m
I feel I've lost control, within the twisted will in my eye
A
Work out!
F#               A               F#
Stuck in this place, why can't I rise up through this maze?
A
Break out!
F#             A                 E
There's no way back, the time is now for me

[Lead section 2]

E|-----------------------|
B|-------------------2/4-|
G|-5-5--5-5-5--5-5-5-----|
D|-----------------------|
A|-----------------------|
E|-----------------------|

[Chorus]

C#m
Drift away to free my soul
A
Another day, another way
E
Fade into the air
F#m
Just to stay alive
C#m
Find myself again
A
Drive away to free my will
E
Straying like the clouds
F#m
Just to stay alive

[Lead section 3]

E|----------------------------------------------------------------------------------------------|
B|----------------------------------------------------------------------------------------------|
G|-7---10p7-10p7-10p7---------------------------------------------------------------------------|
D|---------------------8---10p8-10p8-10p8-------------------------------------------------------|
A|-----------------------------------------10---12p10-12p10-12p10-10h12p10--12p10-12p10-12p10---|
E|----------------------------------------------------------------------------------------------|

[Play lead section 1, followed by:]

A B C#m

[Verse 3]

C#m
I can't, I can't survive
C#m
I try to find the way, but faith will be my guide
N.C.            A
There's nothing left, block out!
F#          A                 F#
Stuck in my life, why can't I rise up through this maze?
A
Break out!
F#             A                 E
There's no way back, you know it feels like ash

[Play lead section 2]

[Chorus]

C#m
When the daylight's in my eyes
A
It wakes me and I feel alive
E
Fade into the frozen air
F#m
Just to stay alive
C#m
Face myself again
A
Drift away to free my soul,
E
Find the way, 'cause faith looks in
F#m
On my side, he rode

Play lead section 1 to end



************************************

| p  Pull-off
| /  Slide up
| h  Hammer-on
Outros vídeos desta música
    10 exibições
      • ½ Tom
      • A
      • Bb
      • B
      • C
      • Db
      • D
      • Eb
      • E
      • F
      • F#
      • G
      • Ab
    • Adicionar à lista

    Afinação da cifra

    Afinador online

      0 comentários

      Ver todos os comentários

      Entre para o Cifra Club PRO

      Tenha acesso a benefícios exclusivos no App e no Site

      • Chega de anúncios

      • Badges exclusivas

      • Mais recursos no app do Afinador

      • Atendimento Prioritário

      • Aumente seu limite de lista

      • Ajude a produzir mais conteúdo

      Cifra Club Pro

      Aproveite o Cifra Club com benefícios exclusivos e sem anúncios
      Cifra Club Pro
      Aproveite o Cifra Club com benefícios exclusivos e sem anúncios
      Ops (: Contenido disponible sólo en portugués.
      OK