Cifra Club

Delicate

Damien Rice

Cifra: Principal
exibições 41.006
Tom: F (com acordes na forma de C) Capotraste na 5ª casa
Capo 5th fret

 Intro and Verses:


  Fmaj7                  C
E|----0-0---------------------0-0---------------------||
B|----1-1---------------------1-1---------------------||
G|----2-2--0h2-2-0h2-2-0------0-0---------------------||
D|----3-3-----------------0h2-2-2--0h2-2-0h2----------||  X3
A|----3-3---------------------3-3---------------------||
E|-1--1-1---------------------------------------------||


    G
E|-----3-3--------------------------------||
B|-----0-0-0h1-1-1h0-0--------------------||
G|-----0-0-0---0-0---0--------------------||
D|-----0-0-0-----0------0h2-2-0h2-2-0-----||
A|-----2-2--------------------------------||
E|--3--3-3--------------------------------||


Chorus:

listen to cd for proper strumming pattern

    Fmaj7                           C
E|-----0-0-----0-0-----0-0-----0-0-----0-0----0-0----0-0----0-0--||
B|-----1-1-----1-1-----1-1-----1-1-----1-1----1-1----1-1----1-1--||
G|-----2-2-----2-2-----2-2-----2-2-----0-0----0-0----0-0----0-0--||
D|--3-------3-------3-------3-------2-------2------2------2------|| X3
A|--3-------3-------3-------3-------3-------3------3------3------||
E|--1-------1-------1-------1------------------------------------||


    Fmaj7                          G
E|-----0-0-----0-0-----0-0----0-0-----3-3--------------------------||
B|-----1-1-----1-1-----1-1----1-1-----0-0-0h1-1-1h0----------------||
G|-----2-2-----2-2-----2-2----2-2-----0-0-0---0-0------------------||
D|--3-------3-------3-------3---------0-0-0-----0----0h2-2-0h2-2-0-||
A|--3-------3-------3-------3---------2-2--------------------------||
E|--1-------1-------1-------1------3--3-3--------------------------||



Intro

(1) We might kiss when we are alone
    When nobody's watching
    We might take it home
    We might make out when nobody's there
    It's not that we're scared
    It's just that it's delicate

(2) So why do you fill my sorrow
    With the words you've borrowed
    From the only place you've know
    And why do you sing Hallelujah
    If it means nothing to you
    Why do you sing with me at all?

(1) We might live like never before
    When there's nothing to give
    Well how can we ask for more
    We might make love in some sacred place
    The look on your face is delicate

(2) So why do you fill my sorrow
    With the words you've borrowed
    From the only place you've know
    And why do you sing Hallelujah
    If it means nothing to you
    Why do you sing with me at all?

(1) So why do you fill my sorrow
    With the words you've borrowed
    From the only place you've know
    And why do you sing Hallelujah
    If it means nothing to you
    Why do you sing with me at all?
Acordes para:
    Composição: Damien RiceColaboração e revisão:
    • Flávio Moreira

    0 comentários

      mostrar mais comentários

      Conseguiu tocar?

      2tocaram1ainda não

      Grave um vídeo tocando Delicate e mande pra gente!

      00:00 / 00:00
      outros vídeos desta música
      repetirqualidadeautomática
      Outro vídeos desta música
        00:00 / 00:00
        automática
        OK