Cifra Club

Are You Ok

Daniel Caesar

Cifra: Principal (violão e guitarra)
Selo Cifra Club: esta cifra foi revisada para atender aos critérios oficiais da nossa Equipe de Qualidade.
tom: Em
E|----------3---|------------------|-----------3-------|----------0-------|
B|----------1---|----------0-------|-----------0-------|----------1-------|
G|--0---0-------|------0-------0---|------2--------2---|------2-------2---|
D|----2---2-----|----2---2---2---2-|----0---0----0---0-|----3---3---3---3-|
A|--0-----------|--3---------------|-------------------|------------------|
E|--------------|------------------|--3----------------|--1---------------|

   
E|----------3---|------------------|-----------3-------|----------0-------|
B|----------1---|----------0-------|-----------0-------|----------1-------|
G|------0-------|------0-------0---|------2--------2---|------2-------2---|
D|----2---2-----|----2---2---2---2-|----0---0----0---0-|----3---3---3---3-|
A|--0-----------|--3---------------|-------------------|------------------|
E|--------------|------------------|--3----------------|--1---------------|

E|----------3---|------------------|-----------3-------|----------0-------|
B|----------1---|---------0---0----|-----------0-------|----------1-3-0---|
G|------0-------|-----0---2/4-2---0|------2--------2---|------2---------2-|
D|----2---2-----|---2---2-------2--|----0---0----0---0-|----3---3---------|
A|--0-----------|--3---------------|-------------------|------------------|
E|--------------|------------------|--3----------------|--1---------------|

   
E|----------3---|------------------|-----------3-------|----------0-------|
B|----------1---|----------0-------|-----------0-------|----------1-------|
G|--0---0-------|------0-------0---|------2--------2---|------2-------2---|
D|----2---2-----|----2---2---2---2-|----0---0----0---0-|----3---3---3---3-|
A|--0-----------|--3---------------|-------------------|------------------|
E|--------------|------------------|--3----------------|--1---------------|

[Verse 2]
E|----------3-0----|------------------|-----------3-------|----------0-------|
B|----------1---1-0|----------0-------|-----------0-------|----------1-------|
G|--0---0----------|------0-------0---|------2--------2---|------2-------2---|
D|----2---2--------|----2---2---2---2-|----0---0----0---0-|----3---3---3---3-|
A|--0--------------|--3---------------|-------------------|------------------|
E|-----------------|------------------|--3----------------|--1---------------|

E|----------3---|------------------|-----------3-------|----------0-------|
B|----------1---|----------0-------|-----------0-------|----------1-------|
G|------0-------|------0-------0---|------2--------2---|------2-------2---|
D|----2---2-----|----2---2---2---2-|----0---0----0---0-|----3---3---3---3-|
A|--0-----------|--3---------------|-------------------|------------------|
E|--------------|------------------|--3----------------|--1---------------|

E|----------3---|------------------|-----------3-------|----------0-------|
B|----------1---|---------0---0----|-----------0-------|----------1-3-0---|
G|------0-------|-----0---2/4-2---0|------2--------2---|------2---------2-|
D|----2---2-----|---2---2-------2--|----0---0----0---0-|----3---3---------|
A|--0-----------|--3---------------|-------------------|------------------|
E|--------------|------------------|--3----------------|--1---------------|

   
E|----------3---|------------------|-----------3-------|----------0-------|
B|----------1---|----------0-------|-----------0-------|----------1-------|
G|--0---0-------|------0-------0---|------2--------2---|------2-------2---|
D|----2---2-----|----2---2---2---2-|----0---0----0---0-|----3---3---3---3-|
A|--0-----------|--3---------------|-------------------|------------------|
E|--------------|------------------|--3----------------|--1---------------|

[Chorus]
E|----------3-0----|------------------|-----------3-------|----------0-------|
B|----------1---1-0|----------0-------|-----------0-------|----------1-------|
G|--0---0----------|------0-------0---|------2--------2---|------2-------2---|
D|----2---2--------|----2---2---2---2-|----0---0----0---0-|----3---3---3---3-|
A|--0--------------|--3---------------|-------------------|------------------|
E|-----------------|------------------|--3----------------|--1---------------|

E|----------3---|------------------|-----------3-------|----------0-------|
B|----------1---|----------0-------|-----------0-------|----------1-------|
G|------0-------|------0-------0---|------2--------2---|------2-------2---|
D|----2---2-----|----2---2---2---2-|----0---0----0---0-|----3---3---3---3-|
A|--0-----------|--3---------------|-------------------|------------------|
E|--------------|------------------|--3----------------|--1---------------|

E|----------3---|------------------|-----------3-------|----------0-------|
B|----------1---|---------0---0----|-----------0-------|----------1-3-0---|
G|------0-------|-----0---2/4-2---0|------2--------2---|------2---------2-|
D|----2---2-----|---2---2-------2--|----0---0----0---0-|----3---3---------|
A|--0-----------|--3---------------|-------------------|------------------|
E|--------------|------------------|--3----------------|--1---------------|

   
E|----------3---|------------------|-----------3-------|----------0-------|
B|----------1---|----------0-------|-----------0-------|----------1-------|
G|--0---0-------|------0-------0---|------2--------2---|------2-------2---|
D|----2---2-----|----2---2---2---2-|----0---0----0---0-|----3---3---3---3-|
A|--0-----------|--3---------------|-------------------|------------------|
E|--------------|------------------|--3----------------|--1---------------|

[Interlude]
E|-------12---------12---|------7-------7-----|------5--------5---|------7-------7---|
B|-12---------12---------|--7-------7---------|--5--------5-------|--7-------7-------|
G|----12---12----12---12-|----7---7---7---7---|----6---6----6---6-|----8---8---8---8-| X4
D|-----------------------|--------------------|-------------------|------------------|
A|-----------------------|--------------------|-------------------|------------------|
E|-----------------------|--------------------|-------------------|------------------|
Outros vídeos desta música
341 exibições
    • ½ Tom
    • Am
    • Bbm
    • Bm
    • Cm
    • C#m
    • Dm
    • Ebm
    • Em
    • Fm
    • F#m
    • Gm
    • G#m
  • Adicionar à lista

Afinação da cifra

Afinador online

    0 comentários

    Ver todos os comentários

    Entre para o Cifra Club PRO

    Tenha acesso a benefícios exclusivos no App e no Site

    • Chega de anúncios

    • Mais recursos no app do Afinador

    • Atendimento Prioritário

    • Aumente seu limite de lista

    • Ajude a produzir mais conteúdo

    Cifra Club Pro

    Aproveite o Cifra Club com benefícios exclusivos e sem anúncios
    Cifra Club Pro
    Aproveite o Cifra Club com benefícios exclusivos e sem anúncios
    OK