Cifra Club

Little Rowboat

Daniel Caesar

Cifra: Principal (violão e guitarra)
Selo Cifra Club: esta cifra foi revisada para atender aos critérios oficiais da nossa Equipe de Qualidade.
tom: F
[Intro]
E|-------------------------|-----------------------------|
B|-----------------------3-|------------------------3--1-|
G|-------2-------------0---|--------2-------------0------|
D|-----0---0---0-----3-----|------0---0---0-----3--------|
A|---3-------3-----1-------|----3-------3-----1----------|
E|-1-----------------------|-1---------------------------|

  N.C.
  We don't say enough. . .  We don't stay in love, my brothers.

[Verse 1]
F              Bb
We don't say enough
F                   Bb
We don't stay in love, my brothers
F                Bb
What the fuck is up?
F                Bb
What the fuck is up?

[Verse 2]
F                   Bb
I don't say my prayers when I wake up
F                Bb
I don't call my mom enough
F                Bb
What the fuck is up?
F                Bb
What the fuck is up?

[Chorus]
            Gm       Bb
Guess I'll go to Heaven
       Gm       Bb
In a little rowboat
                N.C.
               (back to main riff)
It's better there

E|-------------------------|-----------------------------|
B|-----------------------3-|------------------------3--1-|
G|-------2-------------0---|--------2-------------0------|
D|-----0---0---0-----3-----|------0---0---0-----3--------|
A|---3-------3-----1-------|----3-------3-----1----------|
E|-1-----------------------|-1---------------------------|

[Verse 3]
F               Bb
The powers that be
F                 Bb
They won't let us see
F                Bb
What we really are
F                   Bb
What's beyond the stars

[Chorus 2]
           Gm        Bb
Guess I'll go to Heaven
      Gm         Bb
In a little rowboat
                 Gm   Bb
It's better there
Gm     E7
Ahhhh

[Outro]
   Bb Gm  F         E7
Enlighten up, my friends
   Bb Gm  F         E7
Enlighten up, my friends
   Bb Gm  F         E7
Enlighten up, my friends
   Bb Gm  F         E7
Enlighten up, my friends

Bb  Gm  F  E7
Bb  Gm  F  E7


Last line through ending tab
      Bb              Gm             F
   En ligh------------------ten      up      my      friends
E|------------------|---------------|---------------|---------------|
B|----------3-------|---------------|---------------|---------------|
G|--------0---0---0-|-------3-------|-------2-------|-------1-------|
D|------3-------3---|-----5---5---5-|-----0---0---0-|-----0-0-0-----|
A|----1-------------|---5-------5---|---3-------3---|---2-----------|
E|------------------|-3-------------|-1-------------|-0-------------|

[Outro]
   Bb              Gm              F               E7
E|---------------|---------------|---------------|---------------|
B|-------3-------|---------------|---------------|---------------|
G|-----0---0---0-|-------3-------|-------2-------|-------1-------|
D|---3-------3---|-----5---5---5-|-----0---0---0-|-----0-0-------| (x2)
A|-1-------------|---5-------5---|---3-------3---|---2-----------|
E|---------------|-3-------------|-1-------------|-0-------------|
Outros vídeos desta música
205 exibições
    • ½ Tom
    • A
    • Bb
    • B
    • C
    • Db
    • D
    • Eb
    • E
    • F
    • F#
    • G
    • Ab
  • Adicionar à lista

Afinação da cifra

Afinador online

    0 comentários

    Ver todos os comentários

    Entre para o Cifra Club PRO

    Tenha acesso a benefícios exclusivos no App e no Site

    • Chega de anúncios

    • Mais recursos no app do Afinador

    • Atendimento Prioritário

    • Aumente seu limite de lista

    • Ajude a produzir mais conteúdo

    Cifra Club Pro

    Aproveite o Cifra Club com benefícios exclusivos e sem anúncios
    Cifra Club Pro
    Aproveite o Cifra Club com benefícios exclusivos e sem anúncios
    OK