Cifra Club

Show No Regrets

Daniel Caesar

Cifra: Principal (violão e guitarra)
Selo Cifra Club: esta cifra foi revisada para atender aos critérios oficiais da nossa Equipe de Qualidade.
tom: Db
E|---------------------------------------------------------------------------|
B|-----------2--------------0-----------0------------------------------------|
G|--------2-----4--2--1--------1--0--------0---------------------------------|
D|-----0-----------------0-----------0---------------------------------------| x4
A|---------------------------------------------------------------------------|
E|--2-----------3--2--1-----------0------------------------------------------|

E|---------------------------------------------------------------------------|
B|-----------2--------------3-----------3------------------------------------|
G|--------2-----4--6--4--------4--3--------3---------------------------------| x3
D|-----0-----------------0-----------0---------------------------------------|
A|---------------------------------------------------------------------------|
E|--2-----------3--5--3-----------3------------------------------------------|

E|---------------------------------------------------------------------------|
B|---------0-------------0-----------0---------------------------------------|
G|--2----------2---1--------1--0--------0------------------------------------|
D|-----0--------------0-----------0------------------------------------------|
A|---------------------------------------------------------------------------|
E|--2--------------1-----------0---------------------------------------------|
Outros vídeos desta música
20 exibições
    • ½ Tom
    • A
    • Bb
    • B
    • C
    • Db
    • D
    • Eb
    • E
    • F
    • F#
    • G
    • Ab
  • Adicionar à lista

Afinação da cifra

Afinador online

    0 comentários

    Ver todos os comentários

    Entre para o Cifra Club PRO

    Tenha acesso a benefícios exclusivos no App e no Site

    • Chega de anúncios

    • Mais recursos no app do Afinador

    • Atendimento Prioritário

    • Aumente seu limite de lista

    • Ajude a produzir mais conteúdo

    Cifra Club Pro

    Aproveite o Cifra Club com benefícios exclusivos e sem anúncios
    Cifra Club Pro
    Aproveite o Cifra Club com benefícios exclusivos e sem anúncios
    OK