Cifra Club

Aprenda

Entrega (riffs e Solo)

Daniela Araújo

Cifra: Principal (violão e guitarra)
Já pensou em usar uma coleção de roupas do Cifra Club? Responda as perguntas abaixo e nos ajude nessa missão! →
tom: D
RIFF DE ENTRADA (INTRODUÇÃO):

E|----------------------|-----------------------------|
B|7h8p7h8---------------|9-9-9-11-10~--9-11-9-9h10~---|
G|--------7-7-7-7-9~----|-----------------------------|
D|----------------------|-----------------------------|
A|----------------------|-----------------------------|
E|----------------------|-----------------------------|

-E mesmo estando no caminho...


Eu posso me perder


A ponto de nem perceber:


E|-----------------------|
B|9-9-9-9b-9-9-----------|
G|-------------7-9~------|
D|-----------------------|
A|-----------------------|
E|-----------------------|


O bem que eu quero não faço

O mal que não quero...       

E|-------------------|
B|9\10--9\10~--------|
G|-------------------|
D|-------------------|
A|-------------------|
E|-------------------|


 Faço e refaço...  

E|-------------------|
B|-------------7-----|
G|--7-9-9-9h10---9~~-|
D|7------------------|
A|-------------------|
E|-------------------|





Mas chega um dia em que a gente decide não insistir 

E|---------------------|
B|---------------------|
G|9-11---11-9----------|
D|---------------------|
A|---------------------|
E|---------------------|



nos mesmos erros...

E|------------------------|
B|------------------------|
G|--7-9-7-9-7-9-7-9-9h11~-|
D|7-----------------------|
A|------------------------|
E|------------------------|


É quando a gente percebe 
Que o tempo não esperou...

E|-----------------------|
B|-----------------------|
G|11b-11-9~--------------|
D|-----------------------|
A|-----------------------|
E|-----------------------|

Que o passado não se consertou.



Quando eu esperei em alguém imperfeito

E|-------------------------|
B|10-9-10~-----------------|
G|-------------------------|
D|-------------------------|
A|-------------------------|
E|-------------------------|

de presente eu ganhei um espelho. 


Agora lava- me, purifica- me. 
Sei que tudo quero eu quero está em ti...




Eu me entrego, eu me entrego, eu me entrego... (REPETE DURANTE TODO O REFRÃO)

E|--------------------------------------------------------------------------------------------------------------|
B|19-19-19-19-17-17----------19-19-19-19-17-17----------20-20-20-20-17-17----------20-20-20-20-22-22-22-22--22~~|
G|-------------------16--16---------------------16--16---------------------16--16-------------------------------|
D|--------------------------------------------------------------------------------------------------------------|
A|--------------------------------------------------------------------------------------------------------------|
E|--------------------------------------------------------------------------------------------------------------|
 
HARMÔNICO ARTIFICIAL (CASA 2, CORDA 5) NO FINAL DA EXECUÇÃO DO RIFF.





(SEGUNDA PARTE)



E mesmo estando no caminho, eu posso me juntar ao acusador...

E|----------|
B|----------|
G|----------|
D|7-7-7-7h9-|
A|----------|
E|----------|



Fazendo de aparências minha religião. 

E|--------|
B|--------|
G|7-9-12~~|
D|--------|
A|--------|
E|--------|

Criando guerra em nome da razão.




Vivendo de verdades incompletas, Em nome de um passado, de uma tradição. É quando a gente percebe que não estamos certos, que na verdade nós estamos cegos...

E|------------------------------------------------------------|----------------|
B|------------------------------------------------------------|----------------|
G|------------------------------------------------------------|----------------|
D|5-7-5-7-5-7-5-7\9---5-7-5-7-5-7-5-7\9---5-7-5-7-5-7-5-7\9---|5-7-9-11-13-14~~|
A|------------------------------------------------------------|----------------|
E|------------------------------------------------------------|----------------|


Mas quando eu esperei em alguém perfeito...


Eu vi o seu reflexo em mim, sem defeito

E|12-10-5-7~~-|
B|------------|
G|------------|
D|------------|
A|------------|
E|------------|



Agora usa-me, vivifica-me
Vem terminar a tua boa obra em mim...





Eu me entrego, eu me entrego, eu me entrego... (2x REPETINDO ESSE RIFF)
E|---------------------------------------------------------------------------------------------------------|
B|19-19-19-19-17-17----------19-19-19-19-17-17-----------20-20-20-20-17-17---------20-20-20-20-22-22-22-22-|
G|-------------------16--16---------------------16--16---------------------16--16--------------------------|
D|---------------------------------------------------------------------------------------------------------|
A|---------------------------------------------------------------------------------------------------------|
E|---------------------------------------------------------------------------------------------------------|


  

(FAZ APÓS TOCAR O RIFF ACIMA PELA SEGUNDA VEZ ):

E|--------------------|
B|20-20-20-20-19-19---|
G|------------------16|
D|--------------------|
A|--------------------|
E|--------------------|



VARIAÇÃO:  (repete 7X e depois volta ao riff normal)

E|------------19-19-20-|
B|17-17-17-17----------|
G|---------------------|
D|---------------------|
A|---------------------|
E|---------------------|





Eu quero me entregar, eu quero me entregar...



Entrada LITO ATALAIA:

E|15--15-17-14--14-15-12-|
B|-----------------------|
G|-----------------------|
D|-----------------------|
A|-----------------------|
E|-----------------------|
Compositor não encontrado.
Colaboração e revisão:
  • Rodrigo Biancard
2.131 exibições
    • ½ Tom
    • A
    • Bb
    • B
    • C
    • Db
    • D
    • Eb
    • E
    • F
    • F#
    • G
    • Ab
  • Adicionar à lista

    0 comentários

    Ver todos os comentários
    00:00 / 00:00
    Outros vídeos desta música
    Repetir Qualidade Automático
    Outros vídeos desta música
    00:00 / 00:00
    Automático

    Cifra Club Pro

    Aproveite o Cifra Club com benefícios exclusivos e sem anúncios
    Cifra Club Pro
    Aproveite o Cifra Club com benefícios exclusivos e sem anúncios
    OK